Song name
# A B C D E F G H I J K L M N O P Q R S T U V W X Y Z

State Radio - Man In The Hall Live tab

Help us improve GuitareTab! Take a short survey!
State Radio
Peace Between Nations
Man in the Hall (Live)
Tabbed by Owen Sakovics
Tuning: Eb Ab Db Gb Bb Eb
www.tabsinonefellswoop.com

   Am			  F	    E
---0----------------------------------------------|
---1-----0h1--------0h1---------------------------|
---2-----0h2--------0h2---------------------------|	x5
---2-----0h2--------0h2---3-3-3-------------------|
-0-0-3p0------0-3p0-------3-3-3---0-2--2-2-2------|
------------------------0-1-0-1-5-0-0--0-0-0-3s4--|

   Am			  F	      E		    E		  E	        E
---0----------------------------------0-0-0-0-------0-0-0-0-------0-0-0-0-------0------------|
---1-----0h1--------0h1---------------0-0-0-0-------0-0-0-0-------0-0-0-0-------0------------|
---2-----0h2--------0h2---------------1-1-1-1-------1-1-1-1-------1-1-1-1-------1------------|	x1
---2-----0h2--------0h2---3-3-3-3---3-2-2-2-2-------2-2-2-2-------2-2-2-2-------2------------|
-0-0-3p0------0-3p0-------3-3-3-3-3-3-2-2-2-2-------2-2-2-2-------2-2-2-2-------2------------|
------------------------0-1-1-1-1-4-1-0-0-0-0-3b4p0-0-0-0-0-3b4p0-0-0-0-0-3b4p0-0-3b4p0-3s4--|

   Am			  F	    E
---0----------------------------------------------|
---1-----0h1--------0h1---------------------------|
---2-----0h2--------0h2---------------------------|	x3
---2-----0h2--------0h2---3-3-3-------------------|
-0-0-3p0------0-3p0-------3-3-3---0-2--2-2-2------|
------------------------0-1-0-1-5-0-0--0-0-0-3s4--|

   Am			  F	      E		    E		  E	        E
---0----------------------------------0-0-0-0-------0-0-0-0-------0-0-0-0-------0------------|
---1-----0h1--------0h1---------------0-0-0-0-------0-0-0-0-------0-0-0-0-------0------------|
---2-----0h2--------0h2---------------1-1-1-1-------1-1-1-1-------1-1-1-1-------1------------|	x1
---2-----0h2--------0h2---3-3-3-3---3-2-2-2-2-------2-2-2-2-------2-2-2-2-------2------------|
-0-0-3p0------0-3p0-------3-3-3-3-3-3-2-2-2-2-------2-2-2-2-------2-2-2-2-------2------------|
------------------------0-1-1-1-1-4-1-0-0-0-0-3b4p0-0-0-0-0-3b4p0-0-0-0-0-3b4p0-0-3b4p0-3s4--|

 C	E	Am	F   E
-0------0-------0-------1---0--|
-1------0-------1-------1---0--|
-0------1-------2-------2---1--|	x3
-2------2-------2-------3---2--|
-3------2-------0-------3---2--|
--------0---------------1---0--|

 C	E	Am	F   G
-0------0-------0-------1---3--|
-1------0-------1-------1---3--|
-0------1-------2-------2---4--|	x1
-2------2-------2-------3---5--|
-3------2-------0-------3---5--|
--------0---------------1---3--|

   Am			  F	    E
---0----------------------------------------------|
---1-----0h1--------0h1---------------------------|
---2-----0h2--------0h2---------------------------|	x2
---2-----0h2--------0h2---3-3-3-------------------|
-0-0-3p0------0-3p0-------3-3-3---0-2--2-2-2------|
------------------------0-1-0-1-5-0-0--0-0-0-3s4--|

 Am	Am	F	E
-0------0-------1-------0--|
-1------1-------1-------0--|
-2------2-------2-------1--|	x3
-2------2-------3-------2--|
-0------0-------3-------2--|
----------------1-------0--|

   Am			  F	      E		    E		  E	        E
---0----------------------------------0-0-0-0-------0-0-0-0-------0-0-0-0-------0------------|
---1-----0h1--------0h1---------------0-0-0-0-------0-0-0-0-------0-0-0-0-------0------------|
---2-----0h2--------0h2---------------1-1-1-1-------1-1-1-1-------1-1-1-1-------1------------|	x1
---2-----0h2--------0h2---3-3-3-3---3-2-2-2-2-------2-2-2-2-------2-2-2-2-------2------------|
-0-0-3p0------0-3p0-------3-3-3-3-3-3-2-2-2-2-------2-2-2-2-------2-2-2-2-------2------------|
------------------------0-1-1-1-1-4-1-0-0-0-0-3b4p0-0-0-0-0-3b4p0-0-0-0-0-3b4p0-0-3b4p0-3s4--|

 Am	Am	F	E
-0------0-------1-------0--|
-1------1-------1-------0--|
-2------2-------2-------1--|	x3
-2------2-------3-------2--|
-0------0---------------2--|
------------------------0--|

   Am			  F	      E		    E		  E	        E
---0----------------------------------0-0-0-0-------0-0-0-0-------0-0-0-0-------0------------|
---1-----0h1--------0h1---------------0-0-0-0-------0-0-0-0-------0-0-0-0-------0------------|
---2-----0h2--------0h2---------------1-1-1-1-------1-1-1-1-------1-1-1-1-------1------------|	x1
---2-----0h2--------0h2---3-3-3-3---3-2-2-2-2-------2-2-2-2-------2-2-2-2-------2------------|
-0-0-3p0------0-3p0-------3-3-3-3-3-3-2-2-2-2-------2-2-2-2-------2-2-2-2-------2------------|
------------------------0-1-1-1-1-4-1-0-0-0-0-3b4p0-0-0-0-0-3b4p0-0-0-0-0-3b4p0-0-3b4p0-3s4--|

 C	E	Am	F   E
-0------0-------0-------1---0--|
-1------0-------1-------1---0--|
-0------1-------2-------2---1--|	x3
-2------2-------2-------3---2--|
-3------2-------0-------3---2--|
--------0---------------1---0--|

 C	E	Am	F   G
-0------0-------0-------1---3--|
-1------0-------1-------1---3--|
-0------1-------2-------2---4--|	x1
-2------2-------2-------3---5--|
-3------2-------0-------3---5--|
--------0---------------1---3--|

 C	E	Am	F   E
-0------0-------0-------1---0--|
-1------0-------1-------1---0--|
-0------1-------2-------2---1--|	x3
-2------2-------2-------3---2--|
-3------2-------0-------3---2--|
--------0---------------1---0--|

 C	E	Am	F   G	C
-0------0-------0-------1---3---0--|
-1------0-------1-------1---3---1--|
-0------1-------2-------2---4---0--|	x1
-2------2-------2-------3---5---2--|
-3------2-------0-------3---5---3--|
--------0---------------1---3------|
Related for Man In The Hall Live tab