Song name
# A B C D E F G H I J K L M N O P Q R S T U V W X Y Z

State Radio - Hopeless Tender tab

State Radio
Simmer Kane
Hopeless Tender
Tabbed by Owen Sakovics
Tuning: Eb Ab Db Gb Bb Eb
www.tabsinonefellswoop.com

 F#m	D	E	F#m
-2------2-------4-------2--|
-2------3-------5-------2--|
-2------2-------4-------2--|	x6
-4------0-------6-------4--|
-4----------------------4--|
-2----------------------2--|

 D	F#m	D	F#m	D	F#m	E	F#m
-2------2-------2-------2-------2-------2-------4-------2--|
-3------2-------3-------2-------3-------2-------5-------2--|
-2------2-------2-------2-------2-------2-------4-------2--|	x1
-0------4-------0-------4-------0-------4-------6-------4--|
--------4---------------4---------------4---------------4--|
--------2---------------2---------------2---------------2--|

 F#m	D	E	F#m
-2------2-------4-------2--|
-2------3-------5-------2--|
-2------2-------4-------2--|	x10
-4------4-------6-------4--|
-4----------------------4--|
-2-------------------------|

 D	F#m	D	F#m	D	F#m	E	F#m
-2------2-------2-------2-------2-------2-------4-------2--|
-3------2-------3-------2-------3-------2-------5-------2--|
-2------2-------2-------2-------2-------2-------4-------2--|	x1
-0------4-------0-------4-------0-------4-------6-------4--|
--------4---------------4---------------4---------------4--|
--------2---------------2---------------2---------------2--|

 F#m	D	E	F#m
-2------2-------4-------2--|
-2------3-------5-------2--|
-2------2-------4-------2--|	x3
-4------4-------6-------4--|
-4----------------------4--|
-2----------------------2--|

 F#m	D	E	F#m	F#m
-2------2-------4-------2-------2--|
-2------3-------5-------2-------2--|
-2------2-------4-------2-------2--|	x1
-4------4-------6-------4-------4--|
-4----------------------4-------4--|
-2----------------------2-------2--|

(OUTRO)
 F#m	D	E	F#m
-2------2-------4-------2--|
-2------3-------5-------2--|
-2------2-------4-------2--|
-4------4-------6-------4--|
-4----------------------4--|
-2-------------------------|
Tap to rate this tab
# A B C D E F G H I J K L M N O P Q R S T U V W X Y Z