Song name
# A B C D E F G H I J K L M N O P Q R S T U V W X Y Z

State Radio - People To People Live tab

State Radio
Studio Demo (stateradio.com)
People to People
Tabbed by Owen Sakovics
Tuning: E A D G B E **For Live Recordings Tune to Eb**

   Am	  G
---5------3--|
---5------3--|
---5------4--|	x5
---7------5--|
-7-7----5-5--|
-0-5----0-3--|

 Am	G	Am	G	Am	G
-5------3-------5-------3-------5-------3--|
-5------3-------5-------3-------5-------3--|
-5------4-------5-------4-------5-------4--|
-7------5-------7-------5-------7-------5--|
-7------5-----7-7-----5-5-----7-7-----5-5--|
-5------3-----5-5-----3-3-----5-5-----3-3--|

 C Am 	C	F	C   G	Am	C	F	C   G
-3-5----3-------1-------3---3---5-------3-------1-------3---3--|
-5-5----5-------1-------5---3---5-------5-------1-------5---3--|
-5-5----5-------2-------5---4---5-------5-------2-------5---4--|	x1
-5-7----5-------3-------5---5---7-------5-------3-------5---5--|
-3-7----3-------3-------3---5---7-------3-------3-------3---5--|
---5------------1-----------3---5---------------1-----------3--|

   Am	  G
---5------3--|
---5------3--|
---5------4--|	x3
---7------5--|
-7-7----5-5--|
-0-5----0-3--|

 Am	G
-5------3--|
-5------3--|
-5------4--|	x3
-7------5--|
-7------5--|
-5------3--|

 C	Am	F	C   G	Am	C	F	C   G
-3------5-------1-------3---3---5-------3-------1-------3---3--|
-5------5-------1-------5---3---5-------5-------1-------5---3--|
-5------5-------2-------5---4---5-------5-------2-------5---4--|	x1
-5------7-------3-------5---5---7-------5-------3-------5---5--|
-3------7-------3-------3---5---7-------3-------3-------3---5--|
-3------5-------3-------3---5---5---------------1-----------3--|

 Am	G	Am	G	Am
-5------3-------5-------3-------5--|
-5------3-------5-------3-------5--|
-5------4-------5-------4-------5--|	x1
-7------5-------7-------5-------7--|
-7------5-----7-7-----5-5-----7-7--|
-5------3-----0-5-----0-3-----0-5--|
Tap to rate this tab
# A B C D E F G H I J K L M N O P Q R S T U V W X Y Z