Song name
# A B C D E F G H I J K L M N O P Q R S T U V W X Y Z

State Radio - Barn Storming Live tab

State Radio
Unreleased Live (02/12/05)
Barn Storming
Tabbed by Owen Sakovics
Tuning: Eb Ab Db Gb Bb Eb

 Am	Am	Dm	G
-5------5-------5-------3--
-5------5-------6-------3--
-5------5-------7-------4--	x1
-7------7-------7-------5--
-7------7-------5-------5--
-5------5---------------3--

 F	C   Am	Dm	G
-1------3---5---5-------3--
-1------5---5---6-------3--
-2------5---5---7-------4--	x1
-3------5---7---7-------5--
-3------3---7---5-------5--
-1----------5-----------3--

 C   G	 Am  	Dm	G	
-3---3---5------5-------3--
-5---3---5------6-------3--
-5---4---5------7-------4--	x2
-5---5---7------7-------5--
-3---5---7------5-------5--
-----3---5--------------3--

 F	G	Am	Am
-1------3-------5-------5--
-1------3-------5-------5--
-2------4-------5-------5--	x2
-3------5-------7-------7--
-3------5-------7-------7--
-1------3-------5-------5--

 Am	Am	Dm	G
-5------5-------5-------3--
-5------5-------6-------3--
-5------5-------7-------4--	x1
-7------7-------7-------5--
-7------7-------5-------5--
-5------5---------------3--

 F	C   Am	Dm	G
-1------3---5---5-------3--
-1------5---5---6-------3--
-2------5---5---7-------4--	x1
-3------5---7---7-------5--
-3------3---7---5-------5--
-1----------5-----------3--

 C   G	 Am  	Dm	G	
-3---3---5------5-------3--
-5---3---5------6-------3--
-5---4---5------7-------4--	x2
-5---5---7------7-------5--
-3---5---7------5-------5--
-----3---5--------------3--

 F	G	Am	Am
-1------3-------5-------5--
-1------3-------5-------5--
-2------4-------5-------5--	x2
-3------5-------7-------7--
-3------5-------7-------7--
-1------3-------5-------5--

 F	E	Am  G	G	F	E  	Am 	Am
-1------0-------5---3---3-------1-------0-------5-------5--
-1------0-------5---3---3-------1-------0-------5-------7--
-2------1-------5---4---4-------2-------1-------5-------7--	x2
-3------2-------7---5---5-------3-------2-------7-------7--
-3------2-------7---5---5-------3-------2-------7-------7--
-1------0-------5---3---3-------1-------0-------5-------5--

 C   G	 Am  	Dm	G	
-3---3---5------5-------3--
-5---3---5------6-------3--
-5---4---5------7-------4--	x2
-5---5---7------7-------5--
-3---5---7------5-------5--
-----3---5--------------3--

 F	G	Am	Am
-1------3-------5-------5--
-1------3-------5-------5--
-2------4-------5-------5--	x2
-3------5-------7-------7--
-3------5-------7-------7--
-1------3-------5-------5--
Tap to rate this tab
 
# A B C D E F G H I J K L M N O P Q R S T U V W X Y Z