Song name
# A B C D E F G H I J K L M N O P Q R S T U V W X Y Z

State Radio - Fight No More tab

State Radio
"Fight No More"
Tabbed by Jordin Charles
Tunning: Eb Ab Db Gb Bb Eb

(Intro)
E---------5--5--------------3--3----------|
B---------6--6--------------5--5----------|
G---------7--7--------------5--5----------|
D--5h7----7--7--x2----------5--5--x2------| x4
A------5--5--5------0h3-0h3-3--3----------|
E-----------------------------------------|

 (verse)
E---5-----------3---------|
B---6-----------5---------|
G---7--x4-------5----x4---|
D---7-----------5---------|  x2
A---5-----------3---------|
E-------------------------|

(bridge...play once)
E--1-------------5--------------3----------5-------3--------|
B--1-------------5--------------3----------5-------3--------|
G--2--x16--------6--x8----------4--x4------6--x4---4---x4---|
D--3-------------7--------------5----------7-------5--------|
A--3-------------7--------------5----------7-------5--------|
E--1-------------5--------------3----------5-------3--------|

(chours)
E--3----------3-------3-----------------------|
B--5----------3-------5-----------------------|
G--5--x4------4--x4---5--x4--9------7---------|
D--5----------5-------5------9--x2--7--x2-----|  x2
A--3----------5-------3------7------5---------|
E-------------3-------------------------------|

Then..(play the intro once)
E---------5--5--------------3--3----------|
B---------6--6--------------5--5----------|
G---------7--7--------------5--5----------|
D--5h7----7--7--x2----------5--5--x2------|
A------5--5--5------0h3-0h3-3--3----------|
E-----------------------------------------|

(2nd verse)
E---5-----------3---------|
B---6-----------5---------|
G---7--x4-------5--x4-----|
D---7-----------5---------|  x2
A---5-----------3---------|
E-------------------------|

(2nd bridge...play once)
E--1-------------5--------------3----------5-------3--------|
B--1-------------5--------------3----------5-------3--------|
G--2--x16--------6--x8----------4--x4------6--x4---4---x4---|
D--3-------------7--------------5----------7-------5--------|
A--3-------------7--------------5----------7-------5--------|
E--1-------------5--------------3----------5-------3--------|

(2nd chours)
E--3----------3-------3-----------------------|
B--5----------3-------5-----------------------|
G--5--x4------4--x4---5--x4--9------7---------|
D--5----------5-------5------9--x2--7--x2-----|  x4
A--3----------5-------3------7------5---------|
E-------------3-------------------------------|

(Outro)
E--3---------7------10-----------|
B--5---------8------12-----------|
G--5--x8-----9--x4--12--x4-------|  x6
D--5---------9------12-----------|
A--3---------7------10-----------|
E--------------------------------|
Tap to rate this tab
 
# A B C D E F G H I J K L M N O P Q R S T U V W X Y Z