Song name
# A B C D E F G H I J K L M N O P Q R S T U V W X Y Z

State Radio - Riddle In Londontown tab

------------------------------------------|
------------------------------------------|
-------8---------8---------8---------8-8--|      x1
-----8---8-----8---8-----8---8-----8------|
-6-6-------6-6-------6-6-------6-6--------|
------------------------------------------|

 Ebm       Ebm       Ebm       Ebm
------------------------------------------|
------------------------------------------|
-------8---------8---------8---------8----|      x1
-----8---8-----8---8-----8---8-----8---8--|
-6-6-------6-6-------6-6-------6-6--------|
------------------------------------------|

 Ebm       Ebm       Gb        Db
-------------------------------------------|
-------------------------------------------|
-------8---------8----------11---------10--|     x3
-----8---8-----8---8-----11---------11-----|
-6-6-------6-6-------9-9---------11--------|
-------------------------------9-----------|

 B         B         B         B
----------------------------------------|
----------------------------------------|
-------8---------8---------8---------8--|        x1
-----9---9-----9---9-----9---9-----9----|
---9---------9---------9---------9------|
-7---------7---------7---------7--------|

 Ebm       Ebm       Ebm       Ebm
------------------------------------------|
------------------------------------------|
-------8---------8---------8---------8----|      x1
-----8---8-----8---8-----8---8-----8---8--|
-6-6-------6-6-------6-6-------6-6--------|
------------------------------------------|

 Ebm       Ebm         Gb      Db
-------------------------------------------|
-------------------------------------------|
-------8---------8----------11---------10--|     x3
-----8---8-----8---8-----11---------11-----|
-6-6-------6-6-------9-9---------11--------|
-------------------------------9-----------|

 B         B         B         B
----------------------------------------|
----------------------------------------|
-------8---------8---------8---------8--|        x1
-----9---9-----9---9-----9---9-----9----|
---9---------9---------9---------9------|
-7---------7---------7---------7--------|

 Ebm       Ebm       Ebm       Ebm
------------------------------------------|
------------------------------------------|
-------8---------8---------8---------8----|      x1
-----8---8-----8---8-----8---8-----8---8--|
-6-6-------6-6-------6-6-------6-6--------|
------------------------------------------|

 Ebm       Ebm       B         B
----------------------------------------|
----------------------------------------|
-------8---------8---------8---------8--| x1
-----8---8-----8---8-----9---9-----9----|
-6-6-------6-6---------9---------9------|
---------------------7---------7--------|

 Gb        Gb        Gb        Gb
----------------------------------------|
-------7---------7---------7---------7--|
-----6---6-----6---6-----6---6-----6----|        x1
---8---------8---------8---------8------|
-9---------9---------9---------9--------|
----------------------------------------|

 Ebm       Ebm       Ebm       Ebm
----------------------------------------|
----------------------------------------|
-------6---------6---------6-6-------6--|        x1
-----8---8-----8---8-----8---------8----|
---8---------8---------8---------8------|
-6---------6---------6---------6--------|

 Ebm       Ebm       Ebm       Ebm
------------------------------------------|
------------------------------------------|
-------8---------8---------8---------8----|      x1
-----8---8-----8---8-----8---8-----8---8--|
-6-6-------6-6-------6-6-------6-6--------|
------------------------------------------|

 Db        Db      Db      Db
----------------------------------|
-------6-6-----6-6-----6-6-----6--|
-----6-------6-------6-------6----|      x1
---6-------6-------6-------6------|
-4--------------------------------|
----------------------------------|

 Gb        Gb        Gb        Gb
----------------------------------------|
-------7---------7---------7---------7--|
-----6---6-----6---6-----6---6-----6----|        x1
---8---------8---------8---------8------|
-9---------9---------9---------9--------|
----------------------------------------|

 Bbm       Bbm     Bbm       Bbm
--------------------------------------|
--------------------------------------|
-------6-6-------6-------6-6-------6--|  x1
-----8---------8-------8---------8----|
---8---------8-------8---------8------|
-6---------6-------6---------6--------|

 Ebm       Ebm       Ebm       Ebm
------------------------------------------|
------------------------------------------|
-------8---------8---------8---------8----|      x1
-----8---8-----8---8-----8---8-----8---8--|
-6-6-------6-6-------6-6-------6-6--------|
------------------------------------------|

 Db        Db       B   Bb
--------------------7---6--|
-------6-6-----6-6--7---6--|
-----6-------6------8---7--|     x1
---6-------6--------9---8--|
-4------------------9---8--|
--------------------7---6--|

 Ebm       Ebm       Ebm       Ebm
------------------------------------------|
------------------------------------------|
-------8---------8---------8---------8----|      x2
-----8---8-----8---8-----8---8-----8---8--|
-6-6-------6-6-------6-6-------6-6--------|
------------------------------------------|

 Ebm       Ebm       Gb      Db
-------------------------------------------|
-------------------------------------------|
-------8---------8----------11---------10--|     x1
-----8---8-----8---8-----11---------11-----|
-6-6-------6-6-------9-9---------11--------|
-------------------------------9-----------|

 Ebm       Ebm   Gb        Db
---------------------------------------|
---------------------------------------|
-------8-8-----8--------11---------10--| x2
-----8-------8-------11---------11-----|
-6-6-------6-----9-9---------11--------|
---------------------------9-----------|

 B          B         B         B
-----------------------------------------|
-----------------------------------------|
-------8----------8---------8---------8--|       x1
-----9---9------9---9-----9---9-----9----|
---9----------9---------9---------9------|
-7----------7---------7---------7--------|

 Ebm       Ebm       Ebm       Ebm
----------------------------------------|
----------------------------------------|
-------8---------8-8-----8---------8-8--|        x1
-----8---8-----8-------8---8-----8------|
-6-6-------6-6-------6-------6-6--------|
----------------------------------------|

 Ebm     Ebm     B         B
------------------------------------|
------------------------------------|
-----8-------8---------8---------8--|    x1
---8---8---8---8-----9---9-----9----|
-6-------6---------9---------9------|
-----------------7---------7--------|

 Gb        Gb        Gb      Gb
------------------------------------|
-------7---------7-7-----7-7-----7--|
-----6---6-----6-------6-------6----|    x1
---8---------8-------8-------8------|
-9---------9------------------------|
------------------------------------|

 Bbm       Bbm     Bbm       Bbm
--------------------------------------|
--------------------------------------|
-------6-6-------6-------6-6-------6--|  x1
-----8---------8-------8---------8----|
---8---------8-------8---------8------|
-6---------6-------6---------6--------|

 Ebm       Ebm       Ebm       Ebm
------------------------------------------|
------------------------------------------|
-------8---------8---------8---------8----|      x1
-----8---8-----8---8-----8---8-----8---8--|
-6-6-------6-6-------6-6-------6-6--------|
------------------------------------------|

 Db        Db      Db        Db
--------------------------------------|
-------6-6-----6---------6---------6--|
-----6-------6---6-----6---6-----6----|  x1
---6-------6---------6---------6------|
-4-----------------4---------4--------|
--------------------------------------|

 Gb        Gb      Gb        Gb
--------------------------------------|
-------7-7-----7---------7---------7--|
-----6-------6---6-----6---6-----6----|  x1
---8-------8---------8---------8------|
-9-----------------9---------9--------|
--------------------------------------|

 Bbm       Bbm     Bbm       Bbm
------------------------------------|
------------------------------------|
-------6-6-----6---------6-6-----6--|    x1
-----8-------8---8-----8-------8----|
---8-------8---------8-------8------|
-6-----------------6----------------|

 Ebm       Ebm       Ebm       Ebm
------------------------------------------|
------------------------------------------|
-------8---------8---------8---------8----|      x1
-----8---8-----8---8-----8---8-----8---8--|
-6-6-------6-6-------6-6-------6-6--------|
------------------------------------------|

 Db                 B   Bb
--------------------7---6--|
-------6------------7---6--|
-----6--------------8---7--|     x1
---6----------------9---8--|
-4------------------9---8--|
--------------------7---6--|

 Abm    Abm     Gb      Db
-4------4-------2-------4--|
-4------4-------2-------6--|
-4------4-------3-------6--|     x2
-6------6-------4-------6--|
-6------6-------4-------4--|
-4------4-------2----------|

 Abm    Abm     Gb      Db      B   Bb  Gb
-4------4-------2-------4-------2---1---2--|
-4------4-------2-------6-------4---3---2--|
-4------4-------3-------6-------4---3---3--|     x1
-6------6-------4-------6-------4---3---4--|
-6------6-------4-------4-------2---1---4--|
-4------4-------2-----------------------2--|

 Gb        Gb        Gb        Gb
--------------------------------------|
-------7---------7---------7-7-----7--|
-----6---6-----6---6-----6-------6----|  x1
---8---------8---------8-------8------|
-9---------9---------9----------------|
--------------------------------------|

 Bbm       Bbm       Bbm     Bbm
--------------------------------------|
--------------------------------------|
-------6---------6-6-----6-6-------6--|  x1
-----8---8-----8-------8---------8----|
---8---------8-------8---------8------|
-6---------6-----------------6--------|

 Ebm       Ebm       Ebm       Ebm       Db             B   Bb
--------------------------------------------------------7---6--|
-----------------------------------------------6-----6--7---6--|
-------8---------8---------8---------8-------6---6------8---7--|         x1
-----8---8-----8---8-----8---8-----8---8---6-------6----9---8--|
-6-6-------6-6-------6-6-------6-6-------4--------------9---8--|
--------------------------------------------------------7---6--|

(OUTRO)
 Ebm             Abm             B               Db          Bb
----------------------------------------------------------------------|
-------7--------------------------------------------------------------|
-----8-------8---4-----4-4-----4-------8-8-----8-10-------10-7-----7--|
---8-------8---8-----6-------6-------9-------9---------11--------8----|
-6-------6---------6-------6-------9-------9--------11---------8------|
---------------------------------7------------------------------------|

**ELECTRIC**
(0:57)
 Gb     Bbm     Ebm     Db
-9------6-------6-------4--|
-11-----6-------7-------6--|
-11-----6-------8-------6--|     x2
-11-----8-------8-------6--|
-9------8-------6-------4--|
--------6------------------|

(2:06)
 Gb     Bbm     Ebm     Db      Gb      Bbm     Ebm     Db      B   Bb
-9------6-------6-------4-------9-------6-------6-------4-------7---6--|
-11-----6-------7-------6-------11------6-------7-------6-------7---6--|
-11-----6-------8-------6-------11------6-------8-------6-------8---7--| x1
-11-----8-------8-------6-------11------8-------8-------6-------9---8--|
-9------8-------6-------4-------9-------8-------6-------4-------9---8--|
--------6-------------------------------6-----------------------7---6--|

 Abm    Gb      Db      Abm     Gb      Db      Abm     Gb      Db      B       Bb      Ebm
-4------2-------4-------4-------2-------4-------4-------2-------4-------7-------6-------6--|
-4------2-------6-------4-------2-------6-------4-------2-------6-------7-------6-------7--|

    x1
-6------4-------6-------6-------4-------6-------6-------4-------6-------9-------8-------8--|
-6------4-------4-------6-------4-------4-------6-------4-------4-------9-------8-------6--|
-4------2---------------4-------2---------------4-------2---------------7-------6----------|

 Gb     Bbm     Ebm     Db      B   Bb
-9------6-------6-------4-------7---6--|
-11-----6-------7-------6-------7---6--|
-11-----6-------8-------6-------8---7--| x1
-11-----8-------8-------6-------9---8--|
-9------8-------6-------4-------9---8--|
--------6-----------------------7---6--|

 Ebm    Abm     B       Db  Bb  Ebm     Abm     B       Db  Bb
-6------4-------7-------9---6---6-------4-------7-------9---6--|
-7------4-------7-------9---6---7-------4-------7-------9---6--|
-8------4-------8-------10--7---8-------4-------8-------10--7--| x2
-8------6-------9-------11--8---8-------6-------9-------11--8--|
-6------6-------9-------11--8---6-------6-------9-------11--8--|
--------4-------7-------9---6-----------4-------7-------9---6--|

(FADE OUT)
 Ebm    Abm     B       Db  Bb  Ebm     Abm     B
-6------4-------7-------9---6---6-------4-------7--|
-7------4-------7-------9---6---7-------4-------7--|
-8------4-------8-------10--7---8-------4-------8--| x1
-8------6-------9-------11--8---8-------6-------9--|
-6------6-------9-------11--8---6-------6-------9--|
--------4-------7-------9---6-----------4-------7--|

TG.
Tap to rate this tab
 
# A B C D E F G H I J K L M N O P Q R S T U V W X Y Z