Song name
# A B C D E F G H I J K L M N O P Q R S T U V W X Y Z

State Radio - Guantanamo tab

State Radio
Year of the Crow
Guantanamo
Tabbed by Owen Sakovics
Tuning: E A D G B E **For live recordings tune to Eb**
www.tabsinonefellswoop.com

 Am     C       G       Am      C       G#      G
-5------3-------3-------5-------3-------4-------3--|
-5------5-------3-------5-------5-------4-------3--|
-5------5-------4-------5-------5-------5-------4--|     x2
-7------5-------5-------7-------5-------6-------5--|
-7------3-------5-------7-------3-------6-------5--|
-5--------------3-------5---------------4-------3--|

 F      Am      F       G#      F       G#      F       Am      Em
-1------5-------1-------4-------1-------4-------1-------5-------7--|
-1------5-------1-------4-------1-------4-------1-------5-------8--|
-2------5-------2-------5-------2-------5-------2-------5-------9--|     x1
-3------7-------3-------6-------3-------6-------3-------7-------9--|
-3------7-------3-------6-------3-------6-------3-------7-------7--|
-1------5-------1-------4-------1-------4-------1-------5----------|

 Am                     Am      C       G       Am      C       G#      G
-5----------------------5-------3-------3-------5-------3-------4-------3--|
-5----------------------5-------5-------3-------5-------5-------4-------3--|
-5----------------------5-------5-------4-------5-------5-------5-------4--|     x1
-7----------------------7-------5-------5-------7-------5-------6-------5--|
-7----------------------7-------3-------5-------7-------3-------6-------5--|
-5----------------------5---------------3-------5---------------4-------3--|

 F      Am      F       G#      F       G#      F       Am      Em      Em
-1------5-------1-------4-------1-------4-------1-------5-------7-------7--|
-1------5-------1-------4-------1-------4-------1-------5-------8-------8--|
-2------5-------2-------5-------2-------5-------2-------5-------9-------9--|     x1
-3------7-------3-------6-------3-------6-------3-------7-------9-------9--|
-3------7-------3-------6-------3-------6-------3-------7-------7-------7--|
-1------5-------1-------4-------1-------4-------1-------5------------------|

 Dm     G       Am      Am      Dm      G
-5------3-------5-------5-------5-------3--|
-6------3-------5-------5-------6-------3--|
-7------4-------5-------5-------7-------4--|     x1
-7------5-------7-------7-------7-------5--|
-5------5-------7-------7-------5-------5--|
--------3-------5-------5---------------3--|

 Cm     F       Bb      Bbm     F       C       Dm      A       Bb      F
-3------1-------1-------1-------1-------3-------5-------5-------6-------1--|
-4------1-------3-------2-------1-------5-------6-------5-------6-------1--|
-5------2-------3-------3-------2-------5-------7-------6-------7-------2--|     x1
-5------3-------3-------3-------3-------5-------7-------7-------8-------3--|
-3------3-------1-------1-------3-------3-------5-------7-------8-------3--|
--------1-----------------------1-----------------------5-------6-------1--|

 Gm     A       Bb      C       Dm      A       Bb      F       Gm      A
-3------5-------6-------3-------5-------5-------6-------1-------3-------5--|
-3------5-------6-------5-------6-------5-------6-------1-------3-------5--|
-3------6-------7-------5-------7-------6-------7-------2-------4-------6--|     x1
-5------7-------8-------5-------7-------7-------8-------3-------5-------7--|
-5------7-------8-------3-------5-------7-------8-------3-------5-------7--|
-3------5-------6-----------------------5-------6-------1-------3-------5--|

 Dm     C       Dm      E       Am      G               F       C       G       F       E
-5------8-------5-------0-------5-------3---------------1-------0-------3-------1-------0--|
-6------8-------6-------0-------5-------3---------------1-------1-------3-------1-------0--|

    x1
-7------10------7-------2-------7-------0-------0-------3-------2-------0---0---3-------2--|
-5------10------5-------2-------7-------2-------0-------3-------3-------2---0---3-------2--|
--------8---------------0-------5-------3-------2-------1---------------3---2---1-------0--|

LEAD:
----------------------------------------------------------|
----------------------------------------------------------|
-10*-13*-----10*-13*---------10*-13*-----10*-13*----------|
---------12*---------13*-12*---------12*---------13*-12*--|
----------------------------------------------------------|
----------------------------------------------------------|

                         Em      Em
-------------------------7-------7--|
-6--5--6--5--6--5--6--5--8-------8--|
-------------------------9-------9--|    x1
-------------------------9-------9--|
-------------------------7-------7--|
------------------------------------|

 Dm     G       Am      Am      Dm      G       Am      Am      Dm      G
-5------3-------5-------5-------5-------3-------5-------5-------5-------3--|
-6------3-------5-------5-------6-------3-------5-------5-------6-------3--|
-7------4-------5-------5-------7-------4-------5-------5-------7-------4--|     x1
-7------5-------7-------7-------7-------5-------7-------7-------7-------5--|
-5------5-------7-------7-------5-------5-------7-------7-------5-------5--|
--------3-------5-------5---------------3-------5-------5---------------3--|

 A5     G5  A5  A5      G5  G#5 A5      G5  A5  A5      G5
-------------------------------------------------------------|
-------------------------------------------------------------|
-------------------------------------------------------------|   x2
-7----0-5-0-7-0-7-----0-5-0-6---7-----0-5-0-7-0-7-----0-5-0--|
-7----0-5-0-7-0-7-----0-5-0-6---7-----0-5-0-7-0-7-----0-5-0--|
-5----0-3-0-5-0-5-----0-3-0-4---5-----0-3-0-5-0-5-----0-3-0--|
Tap to rate this tab
 
# A B C D E F G H I J K L M N O P Q R S T U V W X Y Z