Song name
# A B C D E F G H I J K L M N O P Q R S T U V W X Y Z

State Radio - Cia tab

State Radio
Year of the Crow
CIA
Tabbed by Owen Sakovics
Tuning: E A D G B E **For live recordings tune to Eb**
www.tabsinonefellswoop.com

 Dm     Bb      F       A
-5------6-------8-------5--|
-6------6-------10------5--|
-7------7-------10------6--|     x6
-7------8-------10------7--|
-5------8-------8-------7--|
--------6---------------5--|

 Bb     Bb      Dm      F       Bb      Bb      Dm      C
-6------6-------5-------8-------6-------6-------5-------3--|
-6------6-------6-------10------6-------6-------6-------5--|
-7------7-------7-------10------7-------7-------7-------5--|     x1
-8------8-------7-------10------8-------8-------7-------5--|
-8------8-------5-------8-------8-------8-------5-------3--|
-6------6-----------------------6-------6------------------|

 Bb     Bb      F       C       Bb      Bb
-6------6-------8-------8-------6-------6--|
-6------6-------10------8-------6-------6--|
-7------7-------10------9-------7-------7--|     x1
-8------8-------10------10------8-------8--|
-8------8-------8-------10------8-------8--|
-6------6---------------8-------6-------6--|

----------------------------------|
----------------------------------|
----------------------------------|      x1
-------------------------5-5-7-7--|
-------5-5-5-7-7-7-8-8-8----------|
-8-8-8----------------------------|

 Dm     Bb      F       A
-5------6-------8-------5--|
-6------6-------10------5--|
-7------7-------10------6--|     x4
-7------8-------10------7--|
-5------8-------8-------7--|
--------6---------------5--|

 Bb     Bb      Dm      F       Bb      Bb      Dm      C
-6------6-------5-------8-------6-------6-------5-------3--|
-6------6-------6-------10------6-------6-------6-------5--|
-7------7-------7-------10------7-------7-------7-------5--|     x1
-8------8-------7-------10------8-------8-------7-------5--|
-8------8-------5-------8-------8-------8-------5-------3--|
-6------6-----------------------6-------6------------------|

 Bb     Bb      F       F       C       C       Bb      F       C       C       C
-6------6-------8-------8-------8-------8-------6-------8-------3-------3-------3--|
-6------6-------10------10------8-------8-------6-------10------5-------5-------5--|
-7------7-------10------10------9-------9-------7-------10------5-------5-------5--|     x1
-8------8-------10------10------10------10------8-------10------5-------5-------5--|
-8------8-------8-------8-------10------10------8-------8-------3-------3-------3--|
-6------6-----------------------8-------8-------6----------------------------------|

LEAD:
------------------------------------------------------------------|
------------------------------------------------------------------|
------------------------------------------------------------------|
---------------------------------------------5-5-5-7-7-7-5-5------|
-5-5-5-5-8-8-7-7-----8-8-7-7-----7-7-7-8-8-8-----------------8-8--|
-----------------6-6---------8-8----------------------------------|

------------------------------------------------------------------|
------------------------------------------------------------------|
------------------------------------------------------------------|
---------------------------------------------5-5-5-7-7-7-5-5------|
-5-5-5-5-8-8-7-7-----8-8-7-7-----7-7-7-8-8-8-----------------8-8--|
-----------------6-6---------8-8----------------------------------|

------------------------------------------------------------------|
------------------------------------------------------------------|
------------------------------------------------------------------|
---------------------------------------------5-5-5-7-7-7-5-5------|
-5-5-5-5-8-8-7-7-----8-8-7-7-----7-7-7-8-8-8-----------------8-8--|
-----------------6-6---------8-8----------------------------------|

----------------------------------------------------|
----------------------------------------------------|
----------------------------------------------------|
-------------------------------------5-5------------|
-5-5-8-8-7-7-----8-8-7-7-----7-7-8-8-----8-8-7-7-5--|
-------------6-6---------8-8------------------------|

**BASS & DRUMS & VOCALS**

 Dm     Bb      F       A
-5------6-------8-------5--|
-6------6-------10------5--|
-7------7-------10------6--|     x2
-7------8-------10------7--|
-5------8-------8-------7--|
--------6---------------5--|

 Bb     Bb      Dm      F       Bb      Bb      Dm      C
-6------6-------5-------8-------6-------6-------5-------3--|
-6------6-------6-------10------6-------6-------6-------5--|
-7------7-------7-------10------7-------7-------7-------5--|     x1
-8------8-------7-------10------8-------8-------7-------5--|
-8------8-------5-------8-------8-------8-------5-------3--|
-6------6-----------------------6-------6------------------|

 Bb     Bb      F       F       C       C       Bb      F       C       C
-6------6-------8-------8-------8-------8-------6-------8-------3-------3--|
-6------6-------10------10------8-------8-------6-------10------5-------5--|
-7------7-------10------10------9-------9-------7-------10------5-------5--|     x1
-8------8-------10------10------10------10------8-------10------5-------5--|
-8------8-------8-------8-------10------10------8-------8-------3-------3--|
-6------6-----------------------8-------8-------6--------------------------|

 Bb     F       C       C       C       Bb      Bb      C       A
-6------8-------8-------8-------8-------6-------6-------8-------5--|
-6------10------8-------8-------8-------6-------6-------8-------5--|
-7------10------9-------9-------9-------7-------7-------9-------6--|     x1
-8------10------10------10------10------8-------8-------10------7--|
-8------8-------10------10------10------8-------8-------10------7--|
-6--------------8-------8-------8-------6-------6-------8-------5--|
Tap to rate this tab
 
# A B C D E F G H I J K L M N O P Q R S T U V W X Y Z