Song name
# A B C D E F G H I J K L M N O P Q R S T U V W X Y Z

State Radio - Rash Of Robberies tab

State Radio
Year of the Crow
Rash of Robberies
Tabbed by Owen Sakovics
Tuning: E A D G B E **For live recordings tune to Eb**
www.tabsinonefellswoop.com

 Dm     Dm      A       A       Dm      Dm      A       A
-5------5-------5-------5-------5-------5-------5-------5--|
-6------6-------5-------5-------6-------6-------5-------5--|
-7------7-------6-------6-------7-------7-------6-------6--|     x1
-7------7-------6-------7-------7-------7-------7-------7--|
-5------5-------7-------7-------5-------5-------7-------7--|
----------------5-------5-----------------------5-------5--|

 Em     Em      Em      Em      D       D       D       D
-7------7-------7-------7-------5-------5-------5-------5--|
-8------8-------8-------8-------7-------7-------7-------7--|
-9------9-------9-------9-------7-------7-------7-------7--|     x2
-9------9-------9-------9-------7-------7-------7-------7--|
-7------7-------7-------7-------5-------5-------5-------5--|
-----------------------------------------------------------|

 G      D       G       D       G       G       A       A
-3------5-------3-------5-------3-------3-------5-------5--|
-3------7-------3-------7-------3-------3-------5-------5--|
-4------7-------4-------7-------4-------4-------6-------6--|     x1
-5------7-------5-------7-------5-------5-------7-------7--|
-5------5-------5-------5-------5-------5-------7-------7--|
-3--------------3---------------3-------3-------5-------5--|

 Dm     Dm      A       A       Dm      Dm      A       A
-5------5-------5-------5-------5-------5-------5-------5--|
-6------6-------5-------5-------6-------6-------5-------5--|
-7------7-------6-------6-------7-------7-------6-------6--|     x1
-7------7-------6-------7-------7-------7-------7-------7--|
-5------5-------7-------7-------5-------5-------7-------7--|
----------------5-------5-----------------------5-------5--|

 Em     Em      Em      Em      D       D       D       D
-7------7-------7-------7-------5-------5-------5-------5--|
-8------8-------8-------8-------7-------7-------7-------7--|
-9------9-------9-------9-------7-------7-------7-------7--|     x2
-9------9-------9-------9-------7-------7-------7-------7--|
-7------7-------7-------7-------5-------5-------5-------5--|
-----------------------------------------------------------|

 G      D       G       D       G       G       A       A
-3------5-------3-------5-------3-------3-------5-------5--|
-3------7-------3-------7-------3-------3-------5-------5--|
-4------7-------4-------7-------4-------4-------6-------6--|     x1
-5------7-------5-------7-------5-------5-------7-------7--|
-5------5-------5-------5-------5-------5-------7-------7--|
-3--------------3---------------3-------3-------5-------5--|

 G      D       G       D       G       D   Em  F#
-3------5-------3-------5-------3-------5---7---9---|
-3------7-------3-------7-------3-------7---8---11--|
-4------7-------4-------7-------4-------7---9---11--|x1
-5------7-------5-------7-------5-------7---9---11--|
-5------5-------5-------5-------5-------5---7---9---|
-3--------------3---------------3-------------------|

 Dm     Dm      A       A       Dm      Dm      A       A
-5------5-------5-------5-------5-------5-------5-------5--|
-6------6-------5-------5-------6-------6-------5-------5--|
-7------7-------6-------6-------7-------7-------6-------6--|     x1
-7------7-------6-------7-------7-------7-------7-------7--|
-5------5-------7-------7-------5-------5-------7-------7--|
----------------5-------5-----------------------5-------5--|

 Em     Em      Em      Em      D       D
-7------7-------7-------7-------5-------5--|
-8------8-------8-------8-------7-------7--|
-9------9-------9-------9-------7-------7--|     x2
-9------9-------9-------9-------7-------7--|
-7------7-------7-------7-------5-------5--|
-------------------------------------------|

 G      D       G       D       G       G       A       A
-3------5-------3-------5-------3-------3-------5-------5--------|
-3------7-------3-------7-------3-------3-------5-------5--------|
-4------7-------4-------7-------4-------4-------6-------6--------|     x1
-5------7-------5-------7-------5-------5-------7-------7--------|
-5------5-------5-------5-------5-------5-------7-------7--------|
-3--------------3------------------------------------------------|
Tap to rate this tab
 
# A B C D E F G H I J K L M N O P Q R S T U V W X Y Z