Song name
# A B C D E F G H I J K L M N O P Q R S T U V W X Y Z

State Radio - Sudan tab

State Radio
Year of the Crow
Sudan
Tabbed by Owen Sakovics
Tuning: Eb Ab Db Gb Bb Eb
www.tabsinonefellswoop.com

 D#m           D#m       G#m       D#m       G#m      A#       D#m
-6-6-6-6--x-x--6-6--x-x--4-4--x-x--6-6-------4--------6--------6-6-6--6-6--|
-7-7-7-7--x-x--7-7--x-x--4-4--x-x--7-7-------4--------6--------7-7-7--7-7--|
-8-8-8-8--x-x--8-8--x-x--4-4--x-x--8-8-------4--------7--------8-8-8--8-8--|     x1
-8-8-8-8--x-x--8-8--x-x--6-6--x-x--8-8-------6--------8--------8-8-8--8-8--|
-6-6-6-6--x-x--6-6--x-x--6-6--x-x--6-6-------6--------8--------6-6-6--6-6--|
-------------------------4-4--x-x------------4--------6--------------------|

 D#m    D#m     G#m     D#m
-6------6-------4-------6--|
-7------7-------4-------7--|
-8------8-------4-------8--|     x2
-8------8-------6-------8--|
-6------6-------6-------6--|
----------------4----------|

 B      D#m     C#      D#m     B       D#m     C#      D#m
-7------6-------4-------6-------7-------6-------4-------6-6-6-6--|
-7------7-------6-------7-------7-------7-------6-------7-7-7-7--|
-8------8-------6-------8-------8-------8-------6-------8-8-8-8--|       x1
-9------8-------6-------8-------9-------8-------6-------8-8-8-8--|
-9------6-------4-------6-------9-------6-------4-------6-6-6-6--|
-7------------------------------7--------------------------------|

 D#m    G#m     D#m     G#m A#  D#m
-6------4-------6-------4---6---6--|
-7------4-------7-------4---6---7--|
-8------4-------8-------4---7---8--|     x1
-8------6-------8-------6---8---8--|
-6------6-------6-------6---8---6--|
--------4---------------4---6------|

 D#m              D#m                   G#m     D#m
-6-6-9-9-8-8-7-7--6-6-9-9-8-8-7-7-------4-------6--|
-7-7-7-7-7-7-6-6--7-7-7-7-7-7-6-6-------4-------7--|
-8-8-6-6-6-6-6-6--8-8-6-6-6-6-6-6-------4-------8--|     x1
-8-8-8-8-8-8-6-6--8-8-6-6-6-6-6-6-------6-------8--|
-6-6-6-6-6-6-6-6--6-6-6-6-6-6-6-6-------6-------6--|
----------------------------------------4----------|

 B      D#m     C#      D#m
-7------6-------4-------6--|
-7------7-------6-------7--|
-8------8-------6-------8--|     x3
-9------8-------6-------8--|
-9------6-------4-------6--|
-7-------------------------|

 B      D#m     C#      C#  B   G#m          G#m
-7------6-------4-------4---2---4------------4--|
-7------7-------6-------6---4---4------------4--|
-8------8-------6-------6---4---4------------4--|        x1
-9------8-------6-------6---4---6---6-9-8-8--6--|
-9------6-------4-------4---2---6---8-9-8-8--6--|
-7------------------------------4---6-7-6-6--4--|

 C#m    G#m     F#      G#m
-4------4-------2-------4--|
-5------4-------2-------4--|
-6------4-------3-------4--|     x2
-6------6-------4-------6--|
-4------6-------4-------6--|
--------4-------2-------4--|

 C#m    G#m     F#      G#m
-4------4---4s2-2-------4--|
-5------4---4s2-2-------4--|
-6------4---4s3-3-------4--|     x1
-6------6---6s4-4-------6--|
-4------6---6s4-4-------6--|
--------4---4s2-2-------4--|

 C#m    G#m C#  B   G#m          D#m
-4------4---4---2---4------------6--|
-5------4---6---4---4------------7--|
-6------4---6---4---4------------8--|    x1
-6------6---6---4---6---6-9-8-8--8--|
-4------6---4---2---6---8-9-8-8--6--|
--------4-----------4---6-7-6-6-----|

 B      D#m     C#      D#m
-7------6-------4-------6--|
-7------7-------6-------7--|
-8------8-------6-------8--|     x3
-9------8-------6-------8--|
-9------6-------4-------6--|
-7-------------------------|

 B      D#m     C#      D#m     C#      D#m     C#      C#      D#m
-7------6-------4-------6-------4-------6-------4-------4-------6-6-6-6--|
-7------7-------6-------7-------6-------7-------6-------6-------7-7-7-7--|
-8------8-------6-------8-------6-------8-------6-------6-------8-8-8-8--|       x1
-9------8-------6-------8-------6-------8-------6-------6-------8-8-8-8--|
-9------6-------4-------6-------4-------6-------4-------4-------6-6-6-6--|
-7-----------------------------------------------------------------------|
Tap to rate this tab
# A B C D E F G H I J K L M N O P Q R S T U V W X Y Z