Song name
# A B C D E F G H I J K L M N O P Q R S T U V W X Y Z

State Radio - Fall Of The American Empire tab

State Radio
Year of the Crow
Fall of the American Empire
Tabbed by Owen Sakovics
Tuning: E A D G B E **For live recordings tune to Eb**
www.tabsinonefellswoop.com

 B      C#7     E       B   F#
-7------4-------7-------7---9---|
-7------6-------9-------7---11--|
-8------4-------9-------8---11--|        x3
-9------6-------9-------9---11--|
-9------4-------7-------9---9---|
-7----------------------7-------|

 B      C#7     E       B
-7------4-------7-------7--|
-7------6-------9-------7--|
-8------4-------9-------8--|     x1
-9------6-------9-------9--|
-9------4-------7-------9--|
-7----------------------7--|

 B      C#7     E       B   F#
-7------4-------7-------7---9---|
-7------6-------9-------7---11--|
-8------4-------9-------8---11--|        x2
-9------6-------9-------9---11--|
-9------4-------7-------9---9---|
-7----------------------7-------|

 A      E       B       C#7                 E7
-5------7-------7-------4-------------------7--|
-5------9-------7-------6-------------------0--|
-6------9-------8-------4-----------7----7--7--| x1
-7------9-------9-------6-------6-6----6----6--|
-7------7-------9-------4-------------------7--|
-5--------------7------------------------------|

 B      C#7     E       B   F#
-7------4-------7-------7---9---|
-7------6-------9-------7---11--|
-8------4-------9-------8---11--|        x1
-9------6-------9-------9---11--|
-9------4-------7-------9---9---|
-7----------------------7-------|

 B      C#7     E       B   F#  C#      E
-7------4-------7-------7---9---4-------7--|
-7------6-------9-------7---11--6-------9--|
-8------4-------9-------8---11--6-------9--|     x1
-9------6-------9-------9---11--6-------9--|
-9------4-------7-------9---9---4-------7--|
-7----------------------7------------------|

 B      C#7
-7------4------------------------------------x-x--x--|
-7------6------------------------------------x-x--x--|
-8------4-----------7-----7-----7-----7------x-x--x--|   x1
-9------6---------6-----6-----6-----6-----6--x-x--x--|
-9------4-------7-----7-----7-----7-----7----x-x--x--|
-7-------------------------------------------x-x--x--|

 D      A       G       F#
-5------5-------3-------2--|
-7------5-------3-------2--|
-7------6-------4-------3--|     x1
-7------7-------5-------4--|
-5------7-------5-------4--|
--------5-------3-------2--|

 Bm     A       G       F#
-7------5-------3-------2--|
-7------5-------3-------2--|
-7------6-------4-------3--|     x1
-9------7-------5-------4--|
-9------7-------5-------4--|
-7------5-------3-------2--|

 B        C#7          E                  B
----------------4-------------------------7-----6-6--|
---7------6---6-----6--9---9-7-------7-7--7--s7---7--|
-------7----4-----4------9---7h9p7---7-7--8----------|   x1
-9---9----6------------9-----------9------9----------|
------------------------------------------9----------|
------------------------------------------7----------|

 B           C#7       E          B   F#
----7---7--------4----------------7---9---|
------7---7--6------4--9---9---9--7---11--|
-8-------------4-------9-9---9----8---11--|      x1
-------------6---------9----------9---11--|
-9--------------------------------9---9---|
----------------------------------7-------|

 B      C#7     E       B   F#
-7------4-------7-------7---9---|
-7------6-------9-------7---11--|
-8------4-------9-------8---11--|        x3
-9------6-------9-------9---11--|
-9------4-------7-------9---9---|
-7----------------------7-------|

 B      A       G       F#
-7------5-------3-------2--|
-7------5-------3-------2--|
-8------6-------4-------3--|     x2
-9------7-------5-------4--|
-9------7-------5-------4--|
-7------5-------3-------2--|

        C#7     E       B   F#
--------4-------7-------7---9---|
--------6-------9-------7---11--|
--------4-------9-------8---11--|        x1
--------6-------9-------9---11--|
--------4-------7-------9---9---|
------------------------7-------|

 B      C#7     E       E
-7------4-------7-------7--|
-7------6-------9-------9--|
-8------4-------9-------9--|     x1
-9------6-------9-------9--|
-9------4-------7-------7--|
-7-------------------------|

LEAD:
-----------------------------------------------------------------------------------------------------------|
-----------------------------------------------------------------------------------------------------------|
-9b10-10-10-10-10r9-7-----7b8---7-9-9b10-10-10-10-10r9-7-------7b8---7-9-9b10-10-10-10-10r9-7-------7b8----|
----------------------9-9-----9--------------------------9-9-9-----9--------------------------9-9-9-----9--|
-----------------------------------------------------------------------------------------------------------|
-----------------------------------------------------------------------------------------------------------|

-----------------------------7--------------------------------------------------------------------------|
--------------------------------------------------------------------------------------------------------|
-7-9b10-10-10-10-10r9-7-9b10---9b10r9-7h9p7---7-----------------7b8---7-9b10-10-10-10-10r9-7-----7b8----|
--------------------------------------------9---9-8-7---7-8-9-9-----9------------------------9-9-----9--|
------------------------------------------------------9-------------------------------------------------|
--------------------------------------------------------------------------------------------------------|

------------------------------------------------------------------------------------|
------------------------------------------------------------------------------------|
-7-9b10-10-10-10-10r9-7-------7b8---7b8---7b8---7b8---7b8---7-9b10-10-10-19-10r9-7--|
------------------------9-9-9-----9-----9-----9-----9-----9-------------------------|
------------------------------------------------------------------------------------|
------------------------------------------------------------------------------------|

 B      C#7     E       B   F#
-7------4-------7-------7---9---|
-7------6-------9-------7---11--|
-8------4-------9-------8---11--|        x4
-9------6-------9-------9---11--|
-9------4-------7-------9---9---|
-7----------------------7-------|

 B      A       G       F#
-7------5-------3-------2--|
-7------5-------3-------2--|
-8------6-------4-------3--|     x2
-9------7-------5-------4--|
-9------7-------5-------4--|
-7------5-------3-------2--|

 B      C#7     E       B   F#
-7------4-------7-------7---9---|
-7------6-------9-------7---11--|
-8------4-------9-------8---11--|        x2
-9------6-------9-------9---11--|
-9------4-------7-------9---9---|
-7----------------------7-------|

 B      C#7     E       E       B
-7------4-------7-------7-------7--|
-7------6-------9-------9-------7--|
-8------4-------9-------9-------8--|     x1
-9------6-------9-------9-------9--|
-9------4-------7-------7-------9--|
-7------------------------------7--|
Tap to rate this tab
 
# A B C D E F G H I J K L M N O P Q R S T U V W X Y Z