Song name
# A B C D E F G H I J K L M N O P Q R S T U V W X Y Z

Stateless - Running Out tab

<><><><><><><><><><><><><><><><><><><><><><><><><><><><><><><><><><><><><><>
Artist: Stateless
Album:  Stateless [2007]
Title:  Running Out
<><><><><><><><><><><><><><><><><><><><><><><><><><><><><><><><><><><><><><>

Tuning: Standard

Intro:
e|------5-----5-----5---------5-----5-----5---------|
B|----6-----6-----6---6-----6-----6-----6---6-------|
G|--7-----7-----6---------8-----8-----8-------------|
D|--------------------------------------------------| x6
A|--------------------------------------------------|
E|--------------------------------------------------|

to 0/34:
e|--------------------------------------------------|
B|--------------------------------------------------|
G|------3-----3-----3--------2-----2-----2----------|
D|----5-----5-----5---5----5-----5-----5---5--------| x2
A|--5-----5-----5--------5-----5-----5--------------|
E|--------------------------------------------------|

Chorus:
e|-----------------------------------------------|
B|--6------6------6------6------6------6---------|
G|----7------7------7------7------7------7-------|
D|------7------7------7------7------7------7-----| x4
A|--5------5------6------------------------------|
E|-----------------------6------6------6---------|

to 2.17:
e|----------------------------------------------------|
B|----------------------------------------------------|
G|------3----------5-----------7-----------2----------|
D|----5----x3----7----x3-----8----x3-----------x3-----|
A|--5----------5-----------8-------------3------------|
E|-------------------------------------1--------------|

to 2.34:
e|-------------------------------------------------|
B|-------------------------------------------------|
G|-----3--------2--------7-----7-----8--------7----|
D|---5---x3---5---x3---8-----8-----8---x1---8---x3-|
A|-5--------5--------8-----8-----8--------8--------|
E|-------------------------------------------------|

to 2.42:
e|--------------------------------------|
B|------11--------10--------8-----------|
G|--------------------------------------|
D|----8----x2---8----x4---8---x5--------|
A|--8---------8---------6---------------|
E|--------------------------------------|

<><><><><><><><><><><><><><><><><><><><><><><><>><><>

Tabbed by: EA
Tap to rate this tab
 
# A B C D E F G H I J K L M N O P Q R S T U V W X Y Z