Song name
# A B C D E F G H I J K L M N O P Q R S T U V W X Y Z

Stateless - Bloodstream tab

-----------------------------------------------------------------------------
                             Bloodstream - Stateless
-----------------------------------------------------------------------------
Tabbed by:ib4e

Tuning:Standard

Intro/Verse 
(1st Variation)
e|----------9-------9-------------9-------9----------9-------9----9---------|
B|-------10---10------10-------10---10-----------------10------10---10------|
G|---------------11--------------------11---11------------11----------------|
D|--------------------------------------------------------------------------|
A|---9-9----------9--------7-7----------9-----------------------------------|
E|------------------------------------------------10------10----------------|

e|------9-------9----9----------|
B|--------10------10---10-------|
G|-----------11-----------------|
D|------------------------------|
A|------------------------------|
E|---10------10-----------------|

(2nd Variation)
e|----------9-------9-------------9-------9----------9------------10-9------|
B|-------10---10------10-------10---10-----------------10---------------10--|
G|---------------11--------------------11---11-------------9--11------------|
D|--------------------------------------------------------------------------|
A|---9-9----------9--------7-7----------9-----------------------------------|
E|------------------------------------------------10------10--10--------10--|

e|------9----10--9--------------|
B|--------10--------12--10------|
G|-------------------------11---|
D|------------------------------|
A|------------------------------|
E|---10------10-10--10----------|

Chorus

e|------0---------0--------0---0--0-0-----------------|
B|------0---------0--------0---0--0-0-----------------|
G|------6---------9--------4---4--4-4-----------------|
D|------7---------9--------4---4--4-4--2--------------|
A|---5--5--5-5/7--7--7--2--2--22-22-2--0--------------|
E|----------------------------------------------------|

Bridge
(You can play this one octave higher for the last two times)

e|--0----4----2-------|
B|--5----5----3-------|
G|--4----4----2-------| x4
D|--2----0----0-------|
A|--------------------|
E|--------------------|
Tap to rate this tab
# A B C D E F G H I J K L M N O P Q R S T U V W X Y Z