Song name
# A B C D E F G H I J K L M N O P Q R S T U V W X Y Z

Stateless - Bloodstream Acoustic tab

	Stateless - Bloodstream (acoustic version)
	by Glenn Johnston
	12/11/07

INTRO/VERSE for Guitars 1&2:

Guitar 1:

	Am		C			G?
	(wake up..)

e-------0-----0-------------0-----0-------------0-----0---------------------|
B-----1---1-----1---------1---1-----1---------------------------------------|
G-2-2-------2---------0-0-------0-------------5------5--5-------------------|
D----------------------------------------3--3------3------------------------|
A---------------------------------------------------------------------------|
E---------------------------------------------------------------------------|


Guitar 2:

e----------12-------12---------------12-------12---------------12-------12---|
B-------13----13-------12---------13----13-------12---------13----13---------|
G-14-14----------14---------12-12----------12---------10-10----------10------|
D----------------------------------------------------------------------------|
A----------------------------------------------------------------------------|
E----------------------------------------------------------------------------|

(or strum Am, C, G one full octave up, bottom 3 strings only)


CHORUS


Guitar 1 Chords:
	F		G7/F		Fmaj7
	(i think..)	(might..)	   (inhaled..)

Guitar 2:
e--13---15---13---12--------------------------------------------------------|
B--13---13---13---13--------------------------------------------------------|
G--14---14---14---14-------------(or pick accordingly)----------------------|
D--15--------15---15--------------------------------------------------------|
A---------------------------------------------------------------------------|
E---------------------------------------------------------------------------|


LYRICS:

Wake up, look me in the eyes again
I need to feel your hands
Upon my face

Words can be like knives,
They can cut you open,
And then the silence surrounds you,
And holds you

I think I might have inhaled you
I can feel you behind my eyes
You've gotten into my bloodstream
I can feel you floating in me

Words can be like knives,
They can cut you open,
And then the silence surrounds you,
And holds you

I think I might have inhaled you
I can feel you behind my eyes
You've gotten into my bloodstream
I can feel you floating in me

Spaces in between
two minds
and all the places they have been
these places in between

I've tried
To put my finger on it..
(X2)


I think I might have inhaled you
I can feel you behind my eyes
You've gotten into my bloodstream
I can feel you floating in me (X2)

http://www.statelessonline.co.uk/
Tap to rate this tab
# A B C D E F G H I J K L M N O P Q R S T U V W X Y Z