States - Asleep tab

Hey everyone,

This is one of the great songs from the new band called States. States is a band that 
consists of vocalist Mindy White (formerly of band Lydia) and Bryan and Stephen Laurenson 
(former members of Copeland).

To play this tab in the proper key, you'll need a capo on the first fret with the 
strings (without the capo) in standard tuning. I find that this is the simplest way to play 
this awesome song. I hope you all enjoy!

TUNING: STANDARD + CAPO 1

Intro/Verse
Capo 1
E|-----------------------------------------------------------------|
B|-------3---1---0-------0---------------0---------------0---1-----|
G|---0---------------0-------0---0---0-------0---0---0-----------0-| (3x)
D|-----------------2---2---2---2---2---2---2---2---3---3---3---3---|
A|-3---3---3---3---------------------------------------------------|
E|-----------------------------------------------------------------|
Capo 1
E|-----------------------------------------------------------------|
B|-------3---1---0-------0---------------0-------------------------|
G|---0---------------0-------0---0---0-------0---0---0---0---0---0-| (1x)
D|-----------------2---2---2---2---2---2---2---2---3---3---3---3---|
A|-3---3---3---3---------------------------------------------------|
E|-----------------------------------------------------------------|

                          Prechorus
Capo 1
E|-------0-------------------------------------------------------|
B|---1--------3------------------------------------------0-------|
G|-----------------------0---2---0-----2---0---------0-------0---|
D|---------------------------------------------------------------|
A|-0---0---0-----------------------------------3-----------------|
E|---------------------0---0---0-----1---1---1-----3---3---3-----|
Capo 1
E|-------0-------------------------------------------------------|
B|---1--------3--------------------------------------0---0---0---|
G|-------------------0---2---0-----2---0---------0-----0---0---0-|
D|---------------------------------------------------------------|
A|-0---0---0-------------------------------3---------------------|
E|-----------------0---0---0-----1---1---1-----3---3----3---3---3|

                           Chorus
Capo 1
E|-----------------------------------------------------------------|
B|-------5---3---2-------2---------------2---------------2---3-----|
G|---2---------------2-------2---2---2-------2---2---2-----------2-| (3x)
D|-0---0---0---0---4---4---4---4---4---4---4---4---5---5---5---5---|
A|-----------------------------------------------------------------|
E|-----------------------------------------------------------------|
Capo 1
E|-----------------------------------------------------------------|
B|-------5---3---2-------2---------------2-------------------------|
G|---2---------------2-------2---2---2-------2---2---0---2---------| (1x)
D|-0---0---0---0---4---4---4---4---4---4---4---4-------------4-----|
A|-----------------------------------------------------------------|
E|-------------------------------------------------3---3---3-------|

                    Back to Intro/Verse
Capo 1
E|-----------------------------------------------------------------|
B|-------3---1---0-------0---------------0---------------0---1-----|
G|---0---------------0-------0---0---0-------0---0---0-----------0-| (3x)
D|-----------------2---2---2---2---2---2---2---2---3---3---3---3---|
A|-3---3---3---3---------------------------------------------------|
E|-----------------------------------------------------------------|
Capo 1
E|-----------------------------------------------------------------|
B|-------3---1---0-------0---------------0-------------------------|
G|---0---------------0-------0---0---0-------0---0---0---0---0---0-| (1x)
D|-----------------2---2---2---2---2---2---2---2---3---3---3---3---|
A|-3---3---3---3---------------------------------------------------|
E|-----------------------------------------------------------------|

                         Prechorus
Capo 1
E|-------0-------------------------------------------------------|
B|---1--------3------------------------------------------0-------|
G|-----------------------0---2---0-----2---0---------0-------0---|
D|---------------------------------------------------------------|
A|-0---0---0-----------------------------------3-----------------|
E|---------------------0---0---0-----1---1---1-----3---3---3-----|
Capo 1
E|-------0-------------------------------------------------------|
B|---1--------3--------------------------------------0---0---0---|
G|-------------------0---2---0-----2---0---------0-----0---0---0-|
D|---------------------------------------------------------------|
A|-0---0---0-------------------------------3---------------------|
E|-----------------0---0---0-----1---1---1-----3---3----3---3---3|

                         Chorus 2
Capo 1
E|-----------------------------------------------------------------|
B|-------3---1---0-------0---------------0---------------0---1-----|
G|---0---------------0-------0---0---0-------0---0---0-----------0-| (3x)
D|-----------------2---2---2---2---2---2---2---2---3---3---3---3---|
A|-3---3---3---3---------------------------------------------------|
E|-----------------------------------------------------------------|
Capo 1
E|-----------------------------------------------------------------|
B|-------3---1---0-------0---------------0-------------------------|
G|---0---------------0-------0---0---0-------0---0---0---0---0---0-| (1x)
D|-----------------2---2---2---2---2---2---2---2---3---3---3---3---|
A|-3---3---3---3---------------------------------------------------|
E|-----------------------------------------------------------------|

                         Bridge
Capo 1
E|-------3---1-----------------------0-------------------|
B|---------------------3---------1-------1---------3-----|
G|---2-------------4-------4-------------------0-------0-|
D|-------------------------------------------------------|
A|-----------------------------0---0---0-----------------|
E|-1---1---1-----3---3---3-------------------0---0---0---|
Capo 1
E|-------3---1-----------------------0-------------------|
B|---------------------3---------1-------1---------3-----|
G|---2-------------4-------4-------------------4---------|
D|-------------------------------------------------------|
A|-----------------------------0---0---0-----------------|
E|-1---1---1-----3---3---3-------------------3---3-------|

                         Outro
Capo 1
E|-----------------------------------------------------------------|
B|-------3---1---0-------0---------------0---------------0---1-----|
G|---0---------------0-------0---0---0-------0---0---0-----------0-| (3x)
D|-----------------2---2---2---2---2---2---2---2---3---3---3---3---|
A|-3---3---3---3---------------------------------------------------|
E|-----------------------------------------------------------------|
Capo 1
E|-----------------------------------------------------------------|
B|-------3---1---0-------0---------------0-------------------------|
G|---0---------------0-------0---0---0-------0---0---0---0---0---0-| (1x)
D|-----------------2---2---2---2---2---2---2---2---3---3---3---3---|
A|-3---3---3---3---------------------------------------------------|
E|-----------------------------------------------------------------|

Thanks for viewing! Also, a shout out to UG user "Chris Bradley (Ferrets!)" for being 
the first to tab this song. I transposed this based on his tabs. If you don't have a capo, 
his is in half-step down tuning.

Take care!

- J-Priceless
Tap to rate this tab
 
# A B C D E F G H I J K L M N O P Q R S T U V W X Y Z