Song name
# A B C D E F G H I J K L M N O P Q R S T U V W X Y Z

Static Thought - Blisters tab

Help us improve GuitareTab! Take a short survey!
----------------------------------------------------------------------------
			 Blisters - Static Thought
----------------------------------------------------------------------------
Tabbed by:Matt Dale
Email:MATTxDALE@aim.com
                                  PLEASE RATE!!!
Tuning:standard

i dont have the intro it should be really easy to find out on your own

chorus
e|-------------------------||--------------------------|
B|-------------------------||--------------------------|
G|--10-10---------8-8------||--10-(4)-------8-(4)------|
D|--10-10-10-(4)--8-8-8-(4)||--10----10-(4)-8----8-(4)-| this end part was
A|--8--8--10------6-6-8----||--8-----10-----6----8-----|     all muted
E|--------8-----------6----||--------8-----------6-----|
                              XXXXXXXXXXXXXXXXXXXXXXXXX
verse
e|-----------------------------|
B|-----------------------------|
G|--10-(8)---------------------|
D|--10-----11-(8)-6-(8)-10-(8)-|
A|--8------11-----6-----10-----|
E|---------9------4-----8------|

im still working on the rest but thats most of the song

| /  slide up
| \  slide down
| h  hammer-on
| p  pull-off
| ~  vibrato
| +  harmonic
| x  Mute note
============================================================================

www.staticthought.com there signed by the major record label hell-cat records you can 
see them on www.hell-cat.com
Related for Blisters tab