Song name
# A B C D E F G H I J K L M N O P Q R S T U V W X Y Z

Static Thought - Religion Sex And Class tab

----------------------------------------------------------------------------
	        Religion Sex and Class - Static Thought
----------------------------------------------------------------------------
Tabbed by:Matt Dale
Email:MATTxDALE@aim.com
                              PLEASE RATE!!!
Tuning:standard

intro
e|-------------------||-----------|
B|-------------------||-----------|
G|--8--4-------------||--8--4-----|  repeat twice
D|--8--4--6--6-6-6-6-||--8--4--4--|
A|--6--2--6--6-6-6-6-||--6--2--4--|
E|--------4--4-4-4-4-||--------2--|
             XXXXXXX
chorus
e|---------------------------|
B|---------------------------|
G|--6-(3)-4-(6)--------------|  theres some double picking/cross picking
D|--6-----4-----4-(3)-6-(6)--|  in there listen to song to know when to
A|--8-----2-----4-----6------|            its all muted too
E|--------------2-----4------|
  XXXXXXXXXXXXXXXXXXXXXXXXXXX

verse
e|---------------------------|
B|---------------------------|
G|--8-(4)-4-(4)--------------|
D|--8-----4-----4-(4)-6-(4)--|
A|--6-----2-----4-----6------|
E|--------------2-----4------|

verse 2
e|--------------------------------------|
B|--------------------------------------|
G|--8-8-4--4|--8-8-4----8-8-4-4---------|
D|--8-8-4--4|--8-8-4-4--8-8-4-4-4-4-6-6-|
A|--6-6-2--2|--6-6-2-4--6-6-2-2-4-4-6-6-|
E|-------------------2----------2-2-4-4-|

| | imediately to the next note
| }{ cross pick/double pick
| /  slide up
| \  slide down
| h  hammer-on
| p  pull-off
| ~  vibrato
| +  harmonic
| x  Mute note
============================================================================

www.STATICTHOUGHT.COM  theyre signed by the major record label hell-cat records you can 
see them at www.hell-cat.com
Tap to rate this tab
# A B C D E F G H I J K L M N O P Q R S T U V W X Y Z