Song name
# A B C D E F G H I J K L M N O P Q R S T U V W X Y Z

Static X - Night Terrors tab

Help us improve GuitareTab! Take a short survey!
 Artist: Static-X
 Song: Night Terrors
 Album:Start A War
 Tuning: C G C F A D

 Note: They are using 2 guitars in chorus and bridge

 Intro:
 |-------|
 |-------|
 |-------|
 |-2--1--|
 |-2--1--|
 |-2--1--|

 Pre-Verse:
 |----------------|
 |----------------|
 |------------888-|
 |-0-0--0-0-------|
 |-0-0--0-0-------|4x
 |-0-0--0-0-------|

 Verse:
 |---------------|
 |---------------|
 |---------------|
 |-0-0--0-0--111-|
 |-0-0--0-0--111-|16x
 |-0-0--0-0--111-|

 Chorus:
 Guitar I:
 |--------------|
 |--------------|
 |----------888-|
 |-0-0--0-0-----|
 |-0-0--0-0-----|8x
 |-0-0--0-0-----|

 Guitar II:
 |----------------------------------------------------|
 |----------------------------------------------------|
 |--9999999999999997777777777777777777666666666666666-|
 |--xxxxxxxxxxxxxxxxxxxxxxxxxxxxxxxxxxxxxxxxxxxxxxxxx-|2x
 |--7777777777777775555555555555555555444444444444444-|
 |----------------------------------------------------|

 Verse:
 |---------------|
 |---------------|
 |---------------|
 |-0-0--0-0--111-|
 |-0-0--0-0--111-|8x
 |-0-0--0-0--111-|

 Chorus:
 Guitar I:
 |--------------|
 |--------------|
 |----------888-|
 |-0-0--0-0-----|
 |-0-0--0-0-----|8x
 |-0-0--0-0-----|

 Guitar II:
 |----------------------------------------------------|
 |----------------------------------------------------|
 |--9999999999999997777777777777777777666666666666666-|
 |--xxxxxxxxxxxxxxxxxxxxxxxxxxxxxxxxxxxxxxxxxxxxxxxxx-|2x
 |--7777777777777775555555555555555555444444444444444-|
 |----------------------------------------------------|

 Pre-Verse:
 |----------------|  |----------|
 |----------------|  |----------|
 |------------888-|  |----------|
 |-0-0--0-0-------|  |-0-0--0-0-|
 |-0-0--0-0-------|4x|-0-0--0-0-|
 |-0-0--0-0-------|  |-0-0--0-0-|

 Breakdown:
 |----------------------|  |-----|
 |----------------------|  |-----|
 |------------------888-|  |-----|
 |-0-0------0-0---------|  |-0-0-|
 |-0-0------0-0---------|4x|-0-0-|
 |-0-0------0-0---------|  |-0-0-|

 Bridge:
 Guitar I:
 |---------------|  |------------|
 |---------------|  |------------|
 |---------------|  |------------|
 |-0-0--0-0--111-|  |00000000111-|
 |-0-0--0-0--111-|4x|00000000111-|4x
 |-0-0--0-0--111-|  |00000000111-|

 Guitar II:
 |-------------|
 |-12*-12*-13*-|
 |-------------|
 |-------------|
 |-------------|8x
 |-------------|

 Chorus:
 Guitar I:
 |--------------|
 |--------------|
 |----------888-|
 |-0-0--0-0-----|
 |-0-0--0-0-----|16x
 |-0-0--0-0-----|

 Guitar II:
 |----------------------------------------------------|
 |----------------------------------------------------|
 |--9999999999999997777777777777777777666666666666666-|
 |--xxxxxxxxxxxxxxxxxxxxxxxxxxxxxxxxxxxxxxxxxxxxxxxxx-|4x
 |--7777777777777775555555555555555555444444444444444-|
 |----------------------------------------------------|

 Ending:
 |--------------|
 |--------------|
 |----------888-|
 |-0-0--0-0-----|
 |-0-0--0-0-----|4x
 |-0-0--0-0-----|

 Well that's everything i think its not real perfect but
 I tried my best. By the way it's in order.
Related for Night Terrors tab