Song name
# A B C D E F G H I J K L M N O P Q R S T U V W X Y Z

Static X - Chroma-matic tab

Intro:

E|--------------------------------|-------------------------------|
B|--------------------------------|-------------------------------|
G|--------------------------------|-------------------------------|
D|--------------------------------|-------------------------------|
A|-7------8---------7-------5-6-7-|-7-------8-------7-------7-6-5-|
D|--7-6-7---7-6-7-7---7-6-7-5-6-7-|---7-6-7---7-6-7---7-6-7-7-6-5-|

Chorus:

E|----------------------------------------------|
B|----------------------------------------------|
G|----------------------------------------------|
D|-0---/7-7-7-0---/7-7-7-0---/7-7-7-0---/7-7-8--|
A|-0---/7-7-7-0---/7-7-7-0---/7-7-7-0---/7-7-8--|
D|-0---/7-7-7-0---/7-7-7-0---/7-7-7-0---/7-7-8--|

Outro:

E|----------------------------|
B|----------------------------|
G|----------------------------|
D|----------------------------|
A|-7------8-------7-------5-5-|
D|--7-6-7---7-6-7---7-6-7-5-5-|

Order:
Intro x 2
Chorus x 2
Intro x 1
Chorus x 2
Intro x 8
Pause for the solo (not featured in this tab, I'm afraid :( )
Chorus x 2
Intro x 3
outro x 1

I think that Static-x use drop A tuning, but most guitars don't work very well that low 
mine) so I tabbed it in drop D.
What's there seems pretty accurate to my ear.
I'll try and get the solo on later, but no promises.
If you have any comments or Suggestions e-mail me at:
Marichmond(at)btinternet(dot)com.
Enjoy, and thanks for your time. ^_^
Tap to rate this tab
# A B C D E F G H I J K L M N O P Q R S T U V W X Y Z