Song name
# A B C D E F G H I J K L M N O P Q R S T U V W X Y Z

Static X - Push It tab

Song:Push it
Artist:Static-X
Album:Wisconsin Death Trip
Tuning:Drop D
Heres a much easier and better sounding way to play this song. Static-X rules!


Intro:
e|-----------------------------------------------------------------------------|
B|-----------------------------------------------------------------------------|
G|-----------------------------------------------------------------------------|
D|-----------------------------------------------------------------------------|
A|-----------------------------------------------------------------------------|
D|--13-0-13-0--13-0-13-0--13-0-13-0--------------------------------------------|

Verse/Chorus:

e|--------------------------------------------|
B|--------------------------------------------|
G|--------------------------------------------|
D|--------------------------------------------|
A|---0020003-0020003-0020003-0020003-0020003--|
D|---0020003-0020003-0020003-0020003-0020003--|


Bridge:
(I see It I need it)
e|------------------------------------------------------------------------------------|
B|------------------------------------------------------------------------------------|
G|------------------------------------------------------------------------------------|
D|------------------------------------------------------------------------------------|
A|---0-13-0-13-0----------------------------------------------------------------------|
D|---0-13-0-13-0----------------------------------------------------------------------|

e|------------------------------------|
B|------------------------------------|
G|------------------------------------|
D|------------------------------------|
A|--------13------13------13------13--|
D|--xxxxxx--xxxxxx--xxxxxx--xxxxxx----|

(My Mind is Corrosive)let it ring out
e|---------------------------------------------------------------------------------|
B|---------------------------------------------------------------------------------|
G|---------------------------------------------------------------------------------|
D|---------------------------------------------------------------------------------|
A|---------------------------------------------------------------------------------|
D|-0~-3~---------------------------------------------------------------------------|
Tap to rate this tab
# A B C D E F G H I J K L M N O P Q R S T U V W X Y Z