Song name
# A B C D E F G H I J K L M N O P Q R S T U V W X Y Z

Static X - Cold tab

#----------------------------------PLEASE NOTE---------------------------------#
#This file is the author's own work and represents their interpretation of the #
#song. You may only use this file for private study, scholarship, or research. #
#------------------------------------------------------------------------------#





	



Gtr I (C F A# D# G C) - 'Guitar'
Gtr II (E A D G B E) - 'Synth'
Gtr III (C F A# D# G C) - 'Guitar 2'

    Moderately Slow Q=78
   4/4
    Gtr I
    E E  S  E S  E  E  Q         E  E  S  E S  E  E  Q      4x
||----------------------------|-----------------------------||
||o---------------------------|----------------------------o||
||----------------------------|-----------------------------||
||----------------------------|-----------------------------||
||o-2-2-----2-2--2--2---------|--2--2-----2-2--2--2--------o||
||--0-0-----0-0--0--0---------|--0--0-----0-0--0--0---------||
|
|   Gtr II
|   E E +S  E S +E  E +S  E S   +E  E +S  E S +E  E +S  E.  4x
||----2-(2)-0-------3-(3)-2---|-----2-(2)-0-------3-(3)-2---||
||o-----------0-(0)---------0-|-(0)---------0-(0)----------o||
||----------------------------|-----------------------------||
||----------------------------|-----------------------------||
||o---------------------------|----------------------------o||
||----------------------------|-----------------------------||


    E E S E S E E Q    E E S E S E E Q  4x
||-------------------|------------------||
||o------------------|-----------------o||
||-------------------|------------------||
||-------------------|------------------||
||o-2-2---2-2-2-2----|-2-2---2-2-2-2---o||
||--0-0---0-0-0-0----|-0-0---0-0-0-0----||


  $                                                                    To Coda
  Gtr I
  H.      +S   S E    E  E  +H     Q    H.      +S   S E    E  E  +H      Q
|------------------|------------------|------------------|---------------------|
|------------------|------------------|------------------|---------------------|
|-9-------(9)------|-15-14-(14)----7--|-9-------(9)------|-15-14-(14)----14----|
|------------------|------------------|------------------|---------------------|
|-7-------(7)-10-7-|-13-12-(12)----5--|-7-------(7)-10-7-|-13-12-(12)----12----|
|------------------|------------------|------------------|---------------------|
|
| Gtr III
| H.      +S   S E    E  E  +H     Q    H.      +S   S E    E  E  +H      Q
|------------------|------------------|------------------|---------------------|
|------------------|------------------|------------------|---------------------|
|------------------|---------------7--|------------------|---------------------|
|------------------|--8--7--(7)-------|------------------|--8--7--(7)-----7----|
|-2-------(2)------|---------------5--|-2-------(2)------|---------------------|
|-0-------(0)--3-0-|--6--5--(5)-------|-0-------(0)--3-0-|--6--5--(5)-----5----|


  H.      +S   S E    E  E  +H     Q
|------------------|-------------------|
|------------------|-------------------|
|-9-------(9)------|-15-14-(14)----7---|
|------------------|-------------------|
|-7-------(7)-10-7-|-13-12-(12)----5---|
|------------------|-------------------|
|
| H.      +S   S E    E  E  +H       Q
|------------------|-------------------|
|------------------|-------------------|
|------------------|-----------------7-|
|------------------|--8--7--(7)--------|
|-2-------(2)------|-----------------5-|
|-0-------(0)--3-0-|--6--5--(5)--------|


                    1.
  H.      +S   S E    E  E  +H        Q
|------------------|------------------------||
|------------------|-----------------------o||
|-9-------(9)------|-15-14-(14)-------------||
|------------------|------------------------||
|-7-------(7)-10-7-|-13-12-(12)------------o||
|------------------|----------------/12\----||
|
| H.      +S   S E    E  E  +H        H
|------------------|------------------------||
|------------------|-----------------------o||
|------------------|------------------------||
|------------------|--8--7--(7)-------------||
|-2-------(2)------|-----------------------o||
|-0-------(0)--3-0-|--6--5--(5)-----/12\----||


  2.
                          Gtr I
   E  E  +H       Q       E E  S  E S  E  E  Q
|---------------------||----------------------------|
|---------------------||o---------------------------|
|-15-14-(14)----------||----------------------------|
|---------------------||----------------------------|
|-13-12-(12)----------||o-2-2-----2-2--2--2---------|
|---------------/12\--||--0-0-----0-0--0--0---------|
|
|                         Gtr II
|                         E E +S  E S +E  E +S  E S
|---------------------||----2-(2)-0-------3-(3)-2---|
|---------------------||o-----------0-(0)---------0-|
|---------------------||----------------------------|
|---------------------||----------------------------|
|---------------------||o---------------------------|
|---------------------||----------------------------|


   E  E  S  E S  E  E  Q
|------------------------------||
|-----------------------------o||
|------------------------------||
|------------------------------||
|--2--2-----2-2--2--2---------o||
|--0--0-----0-0--0--0----------||
|
| +E  E +S  E S +E  E +S  E.
|-----2-(2)-0-------3-(3)-2----||
|-(0)---------0-(0)-----------o||
|------------------------------||
|------------------------------||
|-----------------------------o||
|------------------------------||


  Gtr II
  E E +S  E S +E  E +S  E S   +E  E +S  E S +E  E +S  E S
|---2-(2)-0-------3-(3)-2---|-----2-(2)-0-------3-(3)-2---|
|-----------0-(0)---------0-|-(0)---------0-(0)---------0-|
|---------------------------|-----------------------------|
|---------------------------|-----------------------------|
|---------------------------|-----------------------------|
|---------------------------|-----------------------------|


                                D.S.
  +E  E +E  E E +E  E +E  E E   +W
|-----2-(2)-0-------3-(3)-2---|------|
|-(0)---------0-(0)---------0-|-(0)--|
|-----------------------------|------|
|-----------------------------|------|
|-----------------------------|------|
|-----------------------------|------|


    &
    H.      +S   S E    E  E  +H     Q
||-------------------|------------------|
||o------------------|------------------|
||--9-------(9)------|-15-14-(14)----7--|
||-------------------|------------------|
||o-7-------(7)-10-7-|-13-12-(12)----5--|
||-------------------|------------------|
|
|   H.      +S   S E    E  E  +H     Q
||-------------------|------------------|
||o------------------|------------------|
||-------------------|---------------7--|
||-------------------|--8--7--(7)-------|
||o-2-------(2)------|---------------5--|
||--0-------(0)--3-0-|--6--5--(5)-------|


  H.      +S   S E    E  E  +H      Q
|------------------|---------------------||
|------------------|--------------------o||
|-9-------(9)------|-15-14-(14)----14----||
|------------------|---------------------||
|-7-------(7)-10-7-|-13-12-(12)----12---o||
|------------------|---------------------||
|
| H.      +S   S E    E  E  +H      Q
|------------------|---------------------||
|------------------|--------------------o||
|------------------|---------------------||
|------------------|--8--7--(7)-----7----||
|-2-------(2)------|--------------------o||
|-0-------(0)--3-0-|--6--5--(5)-----5----||


  H.      +S   S E    E  E  +H     Q     H.      +S   S E    E  E  +H      Q
|------------------|-------------------|------------------|-------------------|
|------------------|-------------------|------------------|-------------------|
|-9-------(9)------|-15-14-(14)----7---|-9-------(9)------|-15-14-(14)--------|
|------------------|-------------------|------------------|-------------------|
|-7-------(7)-10-7-|-13-12-(12)----5---|-7-------(7)-10-7-|-13-12-(12)--------|
|------------------|-------------------|------------------|--------------/12\-|
|
| H.      +S   S E    E  E  +H       Q   H.      +S   S E    E  E  +H      Q
|------------------|-------------------|------------------|-------------------|
|------------------|-------------------|------------------|-------------------|
|------------------|-----------------7-|------------------|-------------------|
|------------------|--8--7--(7)--------|------------------|--8--7--(7)--------|
|-2-------(2)------|-----------------5-|-2-------(2)------|-------------------|
|-0-------(0)--3-0-|--6--5--(5)--------|-0-------(0)--3-0-|--6--5--(5)---/12\-|


  Gtr I
  E E  S  E S  E  E  Q          E  E  S  E S  E  E  Q
|----------------------------|-----------------------------|
|----------------------------|-----------------------------|
|----------------------------|-----------------------------|
|----------------------------|-----------------------------|
|-2-2-----2-2--2--2----------|--2--2-----2-2--2--2---------|
|-0-0-----0-0--0--0----------|--0--0-----0-0--0--0---------|
|
| Gtr II
| E E +S  E S +E  E +S  E S    +E  E +S  E S +E  E +S  E S
|---2-(2)-0-------3-(3)-2----|-----2-(2)-0-------3-(3)-2---|
|-----------0-(0)---------0--|-(0)---------0-(0)---------0-|
|----------------------------|-----------------------------|
|----------------------------|-----------------------------|
|----------------------------|-----------------------------|
|----------------------------|-----------------------------|


   E  E  S  E S  E  E  Q         E  E  S  E S  E  E  Q
|-----------------------------|--------------------------*|
|-----------------------------|--------------------------*|
|-----------------------------|--------------------------*|
|-----------------------------|--------------------------*|
|--2--2-----2-2--2--2---------|--2--2-----2-2--2--2------*|
|--0--0-----0-0--0--0---------|--0--0-----0-0--0--0------*|
|
| +E  E +S  E S +E  E +S  E S   +E  E +S  E S +E  Q.
|-----2-(2)-0-------3-(3)-2---|-----2-(2)-0-------3------*|
|-(0)---------0-(0)---------0-|-(0)---------0-(0)--------*|
|-----------------------------|--------------------------*|
|-----------------------------|--------------------------*|
|-----------------------------|--------------------------*|
|-----------------------------|--------------------------*|



Duration Legend
---------------
W - whole; H - half; Q - quarter; E - 8th; S - 16th; T - 32nd; X - 64th; a - acciaccatura
+ - note tied to previous; . - note dotted; .. - note double dotted
Uncapitalized letters represent notes that are staccato (1/2 duration)
Irregular groupings are notated above the duration line
Duration letters will always appear directly above the note/fret number it represents the
duration for.  Duration letters with no fret number below them represent rests.  Multi-
bar rests are notated in the form Wxn, where n is the number of bars to rest for.  Low
melody durations appear below the staff

Tablature Legend
----------------
 h   - hammer-on
 p   - pull-off
 b   - bend
 pb  - pre-bend
 r   - bend release (if no number after the r, then release immediately)
 /\  - slide into or out of (from/to "nowhere")
 s   - legato slide
 S   - shift slide
 - natural harmonic
[n]  - artificial harmonic
n(n) - tapped harmonic
 ~   - vibrato
 tr  - trill
 T   - tap
 TP  - trem. picking
 PM  - palm muting
\n/  - tremolo bar dip; n = amount to dip
 \n  - tremolo bar down
 n/  - tremolo bar up
/n\  - tremolo bar inverted dip
 =   - hold bend; also acts as connecting device for hammers/pulls
 <> - volume swell (louder/softer)
 x   - on rhythm slash represents muted slash
 o   - on rhythm slash represents single note slash

Misc Legend
-----------
 |  - bar
||  - double bar
||o - repeat start
o|| - repeat end
*|  - double bar (ending)
 :  - bar (freetime)
 $  - Segno
 &  - Coda
Tempo markers -  = BPM(8/16=s8/s16), where s8 = swing 8ths, s16 = swing 16ths

Tap to rate this tab
 
# A B C D E F G H I J K L M N O P Q R S T U V W X Y Z