Song name
# A B C D E F G H I J K L M N O P Q R S T U V W X Y Z

Static X - Im The One tab

song: im the one
album: start a war
band: static-x                                                           -0-
taber parker pitman

hope you make sexy sounds out of you guitar with this one
 (C G C F A D)

intro:
----------------------------------------|
----------------------------------------|
----------------------------------------|
-0-0------0-0------0-0-------2-2-1-3----|
-0-0-12hb-0-0-12hb-0-0-12hb--2-2-1-3 *2-|
-0-0------0-0------0-0-------2-2-1-3----|
verse:
----------------------------|
----------------------------|
----------------------------|
-2-2--2-2--2-2-2-2--2-1-3---|
-2-2--2-2--2-2-2-2--2-1-3---|*7
-2-2--2-2--2-2-2-2--2-1-3---|
pre chorus:
---------------------------------|
---------------------------------|
---------------------------------|
-0-0------0-0------0-0-------0-0-|
-0-0-12hb-0-0-12hb-0-0-12hb--0-0-|
-0-0------0-0------0-0-------0-0-|
chorus:
------------------------|
------------------------|
------------------------|
-6-----0-     in all *3-|
-6-*8--0-*8-------------|
-6-----0----------------|

------------------|
------------------|
------------------|
-6-----8----------|
-6-*8--8-*8-------|
-6-----8----------|

do all but the intro over again

-----------------------------|
-----------------------------|
-----------------------------|
-0-0------0-0------0-0-------|
-0-0-12hb-0-0-12hb-0-0-12hb--|
-0-0------0-0------0-0-------|

bridge:
-----------------------------|
-----------------------------|
-----------------------------|
-2-2---2-2---2-2---2-2-------|
-2-2---2-2---2-2---2-2-------|
-2-2---2-2---2-2---2-2-------|
 . .   . .   . .   . .

--------------------------------------|
--------------------------------------|
--------------------------------------|
-0-0------0-0------0-0-------0-0------|
-0-0-12hb-0-0-12hb-0-0-12hb--0-0-12hb-|
-0-0------0-0------0-0-------0-0------|
 . .      . .      . .

-------------------------------------|
-------------------------------------|
-------------------------------------|
-0-0------0-0------0-0-------2-2-1-3-|
-0-0-12hb-0-0-12hb-0-0-12hb--2-2-1-3-|
-0-0------0-0------0-0-------2-2-1-3-|

--------------------------|
--------------------------|
--------------------------|
-0-0------0-0------0-0----|
-0-0-12hb-0-0-12hb-0-0----|
-0-0------0-0------0-0----|

---------------------------|
---------------------------|
---------------------------|
-1-----3-----0-0-----------|*3
-1-*8--3-*8--0-0-12hb-*4---|
-1-----3-----0-0-----------|

------------------------------------|
------------------------------------|
------------------------------------|
-0-0------0-0------0-0-------0-0----|
-0-0-12hb-0-0-12hb-0-0-12hb--0-0----|
-0-0------0-0------0-0-------0-0----|

chorus:
------------------------|
------------------------|
------------------------|
-6-----0-     in all *3-|
-6-*8--0-*8-------------|
-6-----0----------------|

------------------|
------------------|
------------------|
-6-----8----------|
-6-*8--8-*8-------|
-6-----8----------|

outro:
----------------------------|
----------------------------|
----------------------------|
-2-2--2-2--2-2-2-2--2-1-3---|*3
-2-2--2-2--2-2-2-2--2-1-3---|
-2-2--2-2--2-2-2-2--2-1-3---|
--------------------------------|
--------------------------------|
--------------------------------|
-2-2--2-2--2-2-2-2--2-1-3---2-2-|
-2-2--2-2--2-2-2-2--2-1-3---2-2-|
-2-2--2-2--2-2-2-2--2-1-3---2-2-|

 well thats it, i hope you liked
Tap to rate this tab
# A B C D E F G H I J K L M N O P Q R S T U V W X Y Z