Song name
# A B C D E F G H I J K L M N O P Q R S T U V W X Y Z

Static X - Stingwray tab

STINGWRAY from CULT OF STATIC (which isn't even out yet) by STATIC X

||INTRO||

Tremolo picking

     Repeat until pre-verse riff
-------------------------------------------------------------|
-------------------------------------------------------------|
-------------------------------------------------------------|
-------------------------------------------------------------|
-------------------------------------------------------------|
-8888-6666-55555555-66-55-88888888-6666-55555555-66-5-888888-|

||PRE-VERSE RIFF||

---------------------------------------------------------|
---------------------------------------------------------|
---------------------------------------------------------|
---------------------------------------------------------|
0-----0-------0-----0-------0-----0-------0-----0--------|
0-0-0-0-0-0-0-0-0-0-0-0-0-0-0-0-0-0-0-0-0-0-0-0-0-0-0-0--|
     .    .        .   .    .        .   .        .    .   .
        .    .        .   .   .        .   .         .   .   .

||VERSE||

---------------------------------|
---------------------------------|
---------------------------------|
-------------------------------\-|
-------------------------------\-|  Alternate
8-8-8-8-8-8-8-8-8-8-8-8-8-8-8-8\-|________Between
                               | These
---------------------------------------------------------------|    | Until Chorus
---------------------------------------------------------   ---|
---------------------------------------------------------   ---|
---------------------------------------------------------   ---|
0-----0-------0-----0------------------------------------   ---|
0-0-0-0-0-0-0-0-0-0-0-0-0-0------------------------------- ----|
     .    .        .   .    .        .   .        .    .   .

||CHORUS||

-------------------------------------------------------------|
5-5-5-5-5-----5-5-5-5-5-----5-5-5-5-5------------------------|
6-6-6-6-6-----6-6-6-6-6-----6-6-6-6-6------------------------|
7-7-7-7-7-----7-7-7-7-7-----7-7-7-7-7------------------------| Repeat until next
----------0-------------0-------------0----------------------|
----------0-------------0-------------0----------9p8-9p8-9p8-|


||PLAY INTRO AGAIN||

||PLAY VERSE RIFF AGAIN||

|PLAY CHORUS AGAIN||

||QUIET PART||

||PLAY INTRO AGAIN||

||PLAY CHORUS AGAIN||

||PLAY PRE VERSE RIFF W/ FADE||


this might be a little off by a fret or two on certain parts because I figured
this song out two days ago, its not stuck in my memory too well but I think I got
it right. I'll check for mistakes later.
Tap to rate this tab
 
# A B C D E F G H I J K L M N O P Q R S T U V W X Y Z