Guitaretab - guitar tabs
Song name
# A B C D E F G H I J K L M N O P Q R S T U V W X Y Z

Static X - Grind 2 Halt tab

Grind 2 Halt - Static-X
Cult Of Static

Drop Bb/A#:
Bb F Bb Eb G C
(the sides will read dadgbe, itís to fit properly)

Intro: Synth, fade in (0:00-0:06), times are approx.

e----------------|
b----------------|
g-<7>------------|
d----------------|
a----------------|
d----------------|

...three, four...
Riff (heavy dist.) (x2) (0:07-0:26)

D5
e------------------------------------------|
b------------------------------------------|
g------------------------------------------|
d-0-0----0-0-0----0-0-0-----------<5>------|
a-0-0----0-0-0----0-0-0-------<5>----------|
d-0-0----0-0-0----0-0-0---<5>---------<6>--|

D5                         F5   E5 Eb5
e---------------------------------------|
b---------------------------------------|
g---------------------------------------|
d-0-0----0-0-0----0-0-0----3-3--2--1----|
a-0-0----0-0-0----0-0-0----3-3--2--1----|
d-0-0----0-0-0----0-0-0----3-3--2--1----|
                         slight pm

Riff (x2) w/ sampling (0:27-0:46)

Lead: (0:47-1:06) (clean with delay) w/ Riff

D5                                                      F5  E5 Eb5
e-----------------------------------------------------------|
b-17-------------------------------17-18------------17/18---|
g----19------------17-17/19~---------------------17---------|
d-----------14-15--------------------------14-15------------|
a-----------------------------------------------------------|
d-----------------------------------------------------------|

Verse: x4   (pm throughout) (1:07-1:26)

e---------------------------------------|
b---------------------------------------|
g---------------------------------------|
d-3-3-2-2--2-1-1-1---3-3-2-2--2-1-1-1---|
a-3-3-2-2--2-1-1-1---3-3-2-2--2-1-1-1---|
d-3-3-2-2--2-1-1-1---3-3-2-2--2-1-1-1---|

Chorus: Riff w/ sampling (1:27-1:44)

Verse 2 (1:45-2:04)

Lead Break (2:05-2:14)

e-----------------------------------------------------------|
b-17------------------------------17-18-------------17/18---|
g----19------------17-17/19~---------------------17---------|
d-----------14-15--------------------------14-15------------|
a-----------------------------------------------------------|
d-----------------------------------------------------------|

(2:13) chorus lead in
[ Tab from: http://www.guitaretab.com/s/static-x/188134.html ]
slight pm
e------------|
b------------|
g------------|
d-3-3--2--1--|
a-3-3--2--1--|
d-3-3--2--1--|

Chorus: Riff w/ Lead (2:15-2:24)

Bridge: (2:24-3:00)

e----------------------------------------------------------|
b----------------------------------------------------------|
g----------------------------------------------------------|
d-0-0----0-0-0----0-0-0------0-0----0-0-0----0-0-0-0-------|
a-0-0----0-0-0----0-0-0------0-0----0-0-0----0-0-0-0-------|
d-0-0----0-0-0----0-0-0------0-0----0-0-0----0-0-0-0-------|

Solo (3:00)

e----------------------------------13b~b^-rb-13-12-13--|
b---------------------/13b--rb-b~~---------------------|
g---------------5-7-8----------------------------------|
d-----4--5-7-8-----------------------------------------|
a-5-6--------------------------------------------------|
d------------------------------------------------------|

e-------/15b~~---------------------------|
b-10/13--------13------------------------|
g-----------------14----10-10b~--10-9-10-|
d----------------------------------------|
a----------------------------------------|
d----------------------------------------|

e--/20-20b~~-18-17----18-17-------17----------------------------|
b------------------20-------20-18----20-18-18b~~-17\15----------|
g------------------------------------------------------17-19b~r-|
d---------------------------------------------------------------|
a---------------------------------------------------------------|
d---------------------------------------------------------------|

e-17p13--------13p10-------------------------------------8---|
b-------15-----------10----13----11b~~r-10brp8-10-8b~~-6---6-|
g----------14-----------10----10-----------------------------|
d------------------------------------------------------------|
a------------------------------------------------------------|
d------------------------------------------------------------|

e-----------------------------15h17h18/20b~~~~~-------|
b--------------------15h17h18-------------------------|
g-7h9h10-//-14h15h17----------------------------------|
d-----------------------------------------------------|
a-----------------------------------------------------|
d-----------------------------------------------------|

Verse

Chorus

Chorus w/ Lead Break

End

< > = natural harmonic


trevor jones
timmy91199@yahoo.ca
Related for Grind 2 Halt tab