Song name
# A B C D E F G H I J K L M N O P Q R S T U V W X Y Z

Static X - Shadow Zone tab

-----------------------------------------------------------------------------
			     SHADOW ZONE - Static-X
-----------------------------------------------------------------------------
Tabbed by: AEnima18
Email: antetches@hotmail.co.uk

Tuning: Down 2 whole steps: C F A# D# G C

Intro:
   (Volume Swell)
C |--------------|-----------------------|-----------------------|
G |--------------|-----------------------|-----------------------|
D#|------10------|--11-10-10---10-10-10--|--11-10-10---10-10-----|
A#|------9-------|---9--9--9----9--9--9--|---9--9--9----9--9-----|
F |------8-------|---8--8--8----8--8--8--|---8--8--8----8--8-----|
C |--------------|-----------------------|-----------------------|


  (Harmonics)--------------------------

C |------12----12-----12----12-----12--|
G |---12----12----12-----12-----12-----|
D#|------------------------------------|
A#|------------------------------------|
F |------------------------------------|
C |------------------------------------|
  |
C |---------0--------------------------|
G |---------------0--------------------|
D#|------------------------------------|
A#|------------------------------------|
F |--------------------------5---------|
C |---0-----------------------------6--|


C |--------------------------|----------------------------|
G |--------------------------|----------------------------|
D#|--------------------------|----------------------------|
A#|-----------------------3--|----------------------------|
F |--2---2---2--2--2---2--1--|--2---2---------------------|
C |--0---0---0--0--0---0-----|--0---0------X--3--3--6-6-1-|   
     X   X   X  X  X   X        X   X

   (Harmonics)-------------------

C |--12--------------------------|
G |------------------------------|
D#|-------5----------------------|
A#|------------------5-----------|
F |----------------------------9-|
C |------------------------------| 

  (Harmonics)--------------------

C |---------12-------------------|
G |-------------------12---------|
D#|---5--------------------------|
A#|------------------------------|
F |--------------------------7---|
C |------------------------------|


Chorus:
  (Harmonics)--------------------------

C |------12----12-----12----12-----12--|
G |---12----12----12-----12-----12-----|
D#|------------------------------------|
A#|------------------------------------|
F |------------------------------------|
C |------------------------------------|
  |
C |---------0--------------------------|
G |---------------0--------------------|
D#|------------------------------------|
A#|------------------------------------|
F |--------------------------5---------|
C |---0-----------------------------6--|


Interlude:

C |----------|----------|----------|----------|
G |----------|----------|----------|----------|
D#|----------|--5-------|--3-------|----------|
A#|----------|----------|----------|--3-------|
F |--2-------|--3-------|--1-------|----------|
C |--0-------|----------|----------|--1-------|


                                         Shadow
C |----------|----------|----------|----------|
G |----------|----------|----------|----------|
D#|----------|--5-------|--3-------|----------|
A#|----------|----------|----------|----------|
F |--2-------|--3-------|--1-------|----------|
C |--0-------|----------|----------|----------|



  Zone.                     I come to realize...
  (Harmonics)--------------------------

C |------12----12-----12----12-----12--|
G |---12----12----12-----12-----12-----|
D#|------------------------------------|
A#|------------------------------------|
F |------------------------------------|
C |------------------------------------| 
  |
C |---------0--------------------------|
G |---------------0--------------------|
D#|------------------------------------|
A#|------------------------------------|
F |--------------------------5---------|
C |---0-----------------------------6--|


C |--------------------------|
G |--------------------------|
D#|------11-10-10---10-10-10-|
A#|-------9--9--9----9--9--9-|
F |-------8--8--8----8--8--8-|
C |--------------------------|


End with the verse riffs:

C |--------------------------|----------------------------|
G |--------------------------|----------------------------|
D#|--------------------------|----------------------------|
A#|-----------------------3--|----------------------------|
F |--2---2---2--2--2---2--1--|--2---2---------------------|
C |--0---0---0--0--0---0-----|--0---0------X--3--3--6-6-1-|   
     X   X   X  X  X   X        X   X

End!

| /  slide up
| \  slide down
| h  hammer-on
| p  pull-off
| ~  vibrato
| +  harmonic
| x  Mute note
Tap to rate this tab
 
# A B C D E F G H I J K L M N O P Q R S T U V W X Y Z