Guitaretab - guitar tabs
Song name
# A B C D E F G H I J K L M N O P Q R S T U V W X Y Z

Static X - The Only tab

hey, this is the first time I submit a tab...so here you go.

song:The Only
By:Static X
album:The Only
Tuning: old static X songs seem to usually have this tuning From low to high CFA#D#GC

guide:
     *natural harmonic
     ~let ring


drums start the song and then the guitars come in.

note:everytime you hit a chord, let it ring until you hit the next one.
both guitars do this first.
|-----------------------------------------------------------------|
|-----------------------------------------------------------------|
|----------------------------------5~--------------7~-------------|
|--2~--------------5~--------------5~--------------7~-------------|
|--2~--------------5~--------------3~--------------5~--------6----|
|--0~--------------3~---------------------------------------------|

then, one guitar does this
guitar1
|-----------------------------------------------------------------|
|-----------------------------------------------------------------|
|----------------------------------5~--------------7~--------8----|
|--2~--------------5~--------------5~--------------7~--------8----|
|--2~--------------5~--------------3~--------------5~--------6----|
|--0~--------------3~---------------------------------------------|

and the other does this.
guitar2
|-----------------------------------------------------------------|
|--121212121212121210101010101010108-8-8-8-8-8-8-8-6-6-6-6-6-8----|
|--x-x-x-x-x-x-x-x-x-x-x-x-x-x-x-x-x-x-x-x-x-x-x-x-x-x-x-x-x-x----|
|--9-9-9-9-9-9-9-9-7-7-7-7-7-7-7-7-5-5-5-5-5-5-5-5-3-3-3-3-3-5----|
|-----------------------------------------------------------------|
|-----------------------------------------------------------------|

I'm winning, You're losing I'm falling, Your agony
do this 4x's
2nd guitar does this 1st guitar does nothing
|---12--------------14---------15------------14-------------------|
|-----12--------------12---------12------------12-----------------|
|-----------------------------------------------------------------|
|-----------------------------------------------------------------|
|-----------------------------------------------------------------|
|-----------------------------------------------------------------|

 you're trying to....
both guitars
|-----------------------------------------------------------------|
|-----------------------------------------------------------------|
|----------------------------------5~--------------7~-------------|
|--2~--------------5~--------------5~--------------7~-------------|
|--2~--------------5~--------------3~--------------5~--------6----|
|--0~--------------3~---------------------------------------------|

 I'm tired of trying...
both guitars
|-----------------------------------------------------------------|
|-----------------------------------------------------------------|
|----------------------------------5~--------------7~--------8~---|
|--2~--------------5~--------------5~--------------7~--------8~---|
|--2~--------------5~--------------3~--------------5~--------6~---|
|--0~--------------3~---------------------------------------------|
[ Tab from: http://www.guitaretab.com/s/static-x/201295.html ]
 identity        Fantasy      heresy      killing me...
do this 4x's
2nd guitar does this and 1st guitar does nothing
|---12--------------14---------15------------14-------------------|
|-----12--------------12---------12------------12-----------------|
|-----------------------------------------------------------------|
|-----------------------------------------------------------------|
|-----------------------------------------------------------------|
|-----------------------------------------------------------------|

 you're trying to....
both guitars
|-----------------------------------------------------------------|
|-----------------------------------------------------------------|
|----------------------------------5~--------------7~-------------|
|--2~--------------5~--------------5~--------------7~-------------|
|--2~--------------5~--------------3~--------------5~--------6----|
|--0~--------------3~---------------------------------------------|

 I'm tired of trying...
both guitars
|------------------------------------------------------------------|
|------------------------------------------------------------------|
|----------------------------------5~--------------7~-----------12-|
|--2~--------------5~--------------5~--------------7~------------x-|
|--2~--------------5~--------------3~--------------5~--------6--10-|
|--0~--------------3~----------------------------------------------|

guitar one does this while...
|-----------------------------------------------------------------|
|-----------------------------------------------------------------|
|----------------------------------5~--------------7~-------------|
|--2~--------------5~--------------5~--------------7~-------------|
|--2~--------------5~--------------3~--------------5~--------6----|
|--0~--------------3~---------------------------------------------|

...guitar 2 does this.
|------------------------------------------------------------------|
|------------------------------------------------------------------|
|--9~-------12--11-7~-------12--11-5--4--5--7--9---7--9--11-9--11--|
|--x--------x---x--x--------x---x--x--x--x--x--x---x--x--x--x--x---|
|--7~-------10--9--5~-------10--9--3--2--3--5--7---5--7--9--7--9---|
|------------------------------------------------------------------|

|------------------------------------------------------------------|
|------------------------------------------------------------------|
|------------------------------------------------------------------|
|------------------------------------------------------------------|
|--4/5\4----4/5\4--------4/5\4----4/5\4----------------------------|
|--2/3\2----2/3\2--------2/3\2----2/3\2----*3----------------------|

this time let the last notes ring
|------------------------------------------------------------------|
|------------------------------------------------------------------|
|------------------------------------------------------------------|
|------------------------------------------------------------------|
|--4/5\4~---4/5\4~-------4/5\4~---4/5\4~---------------------------|
|--2/3\2~---2/3\2~-------2/3\2~---2/3\2~---*3----------------------|

everything else is the same thing I know you can find the right placement for the rest 
the song.
Related for The Only tab
The Only chords by Static X