Song name
# A B C D E F G H I J K L M N O P Q R S T U V W X Y Z

Static X - Stingwray tab

-------------------------------------------------------------------------------
			     Stingwray - Static-X
-------------------------------------------------------------------------------
Tabbed by:BushMasterFlex
Email:masculine_but_feminine@hotmail.com

Tuning:Drop C

e|---------------------------------------------------------------------------|
B|---------------------------------------------------------------------------|
G|---------------------------------------------------------------------------|
D|---------------------------------------------------------------------------|
A|33331111000000000000111103333----------------------------------------------|repeated alot
E|---------------------------------------------------------------------------|

e|---------------------------------------------------------------------------|
B|---------------------------------------------------------------------------|
G|---------------------------------------------------------------------------|
D|---------------------------------------------------------------------------|
A|1-0-0-0-0-0-0-1-0-0-0-0-0-0------------------------------------------------|
E|1-0-0-0-0-0-0-1-0-0-0-0-0-0------------------------------------------------|repeated alot
    x x   x x x   x x   x x x
e|---------------------------------------------------------------------------|
B|---------------------------------------------------------------------------|
G|---------------------------------------------------------------------------|
D|-5-5-5-5-5-5-5-5-5-5-5-5-5-5-5-5-------------------------------------------|
A|-3-3-3-3-3-3-3-3-3-3-3-3-3-3-3-3-------------------------------------------|
E|---------------------------------------------------------------------------| 
The fill in the verse

e|---------------------------------------------------------------------------|
B|---------------------------------------------------------------------------|
G|---------------------------------------------------------------------------|
D|-7-7-7-7-8-----7-7-7-7-8-----7-7-7-7-8-------5--5--5--5--------------------|
A|-5-5-5-5-6-0---5-5-5-5-6-0---5-5-5-5-6-0-----3--3--3--3--------------------|
E|-----------0-------------0-------------0-----------------------------------| 
Chorus ( Repeat as needed through the song)

Theres not much to this song, but I find it addictive to play. 
Im pretty certin about everything but the chorus so let me know if you find any mistakes. ENJOY!

| /  slide up
| \  slide down
| h  hammer-on
| p  pull-off
| ~  vibrato
| +  harmonic
| x  Mute note
===============================================================================
Tap to rate this tab
 
# A B C D E F G H I J K L M N O P Q R S T U V W X Y Z