Song name
# A B C D E F G H I J K L M N O P Q R S T U V W X Y Z

Static X - Chroma-matic tab

okay, so the only other tab on here, no offence, is crap. 
so heres a pretty much perfect one for all you kiddies,
no solo thought, sorry, im not much of a solo type. just rhythem
took me bout 5 minutes to tab it out by ear. so here it is....
email me for the solo er anything at::: adrinhxcmusic@yahoo.com, kk 

tuning, DROPITH THE A# (a#fa#d#gc)
Chroma-matic by static-x. album: cannibal.

Intro/Chorus:
|---------------------------------------------------------------|
|---------------------------------------------------------------|
|---------------------------------------------------------------|
|---------------------------------------------------------------| x2
|----------------------------234----------------------------432-|
|-12-0-0-0-13-0-0-0-12-0-0-0-234-12-0-0-0-13-0-0-0-12-0-0-0-432-|
or you can play it this wayy
|---------------------------------------------------------------|
|---------------------------------------------------------------|
|---------------------------------------------------------------|
|---------------------------------------------------------------| x2
|-5-------6------5-------234-5------6-------5-------432---------|
|---0-0-0--0-0-0---0-0-0-234--0-0-0---0-0-0---0-0-0-432---------|


Verse: 13's not 1's and three's and let em ring out kk
|---------------------------------------------------------------|
|---------------------------------------------------------------|
|---------------------------------------------------------------| x2
|-000---1313-000---1313-000---1313--000-------------------------|
|-000---1313-000---1313-000---1313--000--34---------------------|
|-000---1313-000---1313-000---1313--000--34---------------------|

Intro/Chorus:
|---------------------------------------------------------------|
|---------------------------------------------------------------|
|---------------------------------------------------------------|
|---------------------------------------------------------------| x2
|----------------------------234----------------------------432-|
|-12-0-0-0-13-0-0-0-12-0-0-0-234-12-0-0-0-13-0-0-0-12-0-0-0-432-|

Verse: 13's not 1's and three's
|---------------------------------------------------------------|
|---------------------------------------------------------------|
|---------------------------------------------------------------| x2
|-000---1313-000---1313-000---1313--000-------------------------|
|-000---1313-000---1313-000---1313--000--34---------------------|
|-000---1313-000---1313-000---1313--000--34---------------------|

Intro/Chorus:
|---------------------------------------------------------------|
|---------------------------------------------------------------|
|---------------------------------------------------------------|
|---------------------------------------------------------------| x6
|----------------------------234----------------------------432-|
|-12-0-0-0-13-0-0-0-12-0-0-0-234-12-0-0-0-13-0-0-0-12-0-0-0-432-|


Solo Rhythm: the 6's have a ! on top of them so you can see them.
|-----thats 64 for those who cant count-------------------------|
|-------theres come 6's in there, just pay attention to the song|
|--------!----------------!----------------!--------------------|
|555555556555555555555555565555555555555555655555555555555555555|
|555555556555555555555555565555555555555555655555555555555555555|
|555555556555555555555555565555555555555555655555555555555555555|
         ^                ^                ^ 


Verse: 13's not 1's and three's
|---------------------------------------------------------------|
|---------------------------------------------------------------|
|---------------------------------------------------------------| x2
|-000---1313-000---1313-000---1313--000-------------------------|
|-000---1313-000---1313-000---1313--000--34---------------------|
|-000---1313-000---1313-000---1313--000--34---------------------|


Intro/Chorus:
|---------------------------------------------------------------|
|---------------------------------------------------------------|
|---------------------------------------------------------------|
|---------------------------------------------------------------| x2
|----------------------------234----------------------------432-|
|-12-0-0-0-13-0-0-0-12-0-0-0-234-12-0-0-0-13-0-0-0-12-0-0-0-432-|
or you can play it this wayy
|---------------------------------------------------------------|
|---------------------------------------------------------------|
|---------------------------------------------------------------|
|---------------------------------------------------------------| x2
|-5-------6------5-------234-5------6-------5-------432---------|
|---0-0-0--0-0-0---0-0-0-234--0-0-0---0-0-0---0-0-0-432---------|

End:

Intro/Chorus:
|---------------------------------------------------------------|
|---------------------------------------------------------------|
|---------------------------------------------------------------|
|---------------------------------------------------------------| 
|----------------------------234----------------------------1212|
|-12-0-0-0-13-0-0-0-12-0-0-0-234-12-0-0-0-13-0-0-0-12-0-0-0-1212|
or you can play it this wayy
|---------------------------------------------------------------|
|---------------------------------------------------------------|
|---------------------------------------------------------------|
|---------------------------------------------------------------| 
|-5-------6------5-------234-5------6-------5-------5-5---------|


hope you like it, please rate and comment. check my youtube page
for the video

youtube.com/adrinhxc

thanks, laters.
Tap to rate this tab
# A B C D E F G H I J K L M N O P Q R S T U V W X Y Z