Song name
# A B C D E F G H I J K L M N O P Q R S T U V W X Y Z

Static X - Tera-fied tab

This is the first song that I have ever tabbed by ear, kinda hard.lol But here you
go Tera-Fied by Static-X from their latest album Cult Of Static.

Intro:

Guitar 1(clean) : use either delay or echo if you want to play the samples

    (0:00-0:49)
C |-------------------------------------------|
G |-------------------------------------------|
D#|-------------------------------------------|
A#|--14-13------------12-------14-15-12-------| X5
F |---------------------11--------------------|
A#|----------0-1212--0------------------------|
 PM          .       .
Guitar 2(clean) : play as long as guitar 1

C |-------------------------------------------|
G |-------------------------------------------|
D#|-------------------------------------------|
A#|-55555555555555555555555555555555555555555-|
F |-------------------------------------------|
A#|-------------------------------------------|
 PM .........................................

Chorus-
Guitar 1&2(distortion):
(0:50-1:15)
C |-------------------------------------------------------------|
G |-------------------------------------------------------------|
D#|-------------------------------------------------------------|
A#|-7-7-7-7-7--7-7-7-7-7--7-7-7-7-7--7-7-7-7-7--7-7-7-7---------| X4
F |-5-5-5-5-5--5-5-5-5-5--5-5-5-5-5--5-5-5-5-5--5-5-5-5-x-x-x-x-|
A#|-------------------------------------------------------------|

Repeat clean intro 1 time(1:16-1:27)

Verse Guitar 1&2(distortion):
(1:28-1:40)
C |-------------------------------------------|
G |-------------------------------------------|
D#|-------------------------------------------|
A#|-222-222-222-222-222-222-222-222-----------| X2
F |-222-222-222-222-222-222-222-222-----------|
A#|-222-222-222-222-222-222-222-222-----------|

Pre-Chorus guitar 1&2
(1:41-1:52)
C |-------------------------------------------|
G |-------------------------------------------|
D#|-------------------------------------------|
A#|-22222-22222-22222-22222-22222-------------| X2
F |-22222-22222-22222-22222-22222-------------|
A#|-22222-22222-22222-22222-22222-------------|

Chorus(1:53-2:17) X4 but on the last time skip the muted string.

repeat verse(2:18-2:30) and pre-chorus{2:31-2:43) and instead of the chorus play the 
only twice instead of 5 times.

Repeat chorus(3:09-3:33) then have guitar 1 play the chorus alone(3:35-3:43) only twice.

Repeat Pre-chorus(3:46-3:58) and chorus until the song ends.
Tap to rate this tab
 
# A B C D E F G H I J K L M N O P Q R S T U V W X Y Z