Song name
# A B C D E F G H I J K L M N O P Q R S T U V W X Y Z

Static X - Dirthouse tab

Artist: Static-X
Song: Dirthouse
Album: Start A War
Tabbed by: LoserBrett

Tuning: Drop A#
C
G
D#
A#
F
A#

Before we begin, this song IS in drop A#!  I don't care what you've heard-- that low 
in the bridge is an A# power chord!

* = Palm Mute

Riff A
   * * *  * * *
|----------------|
|----------------|
|----------------|
|--4-4-4--4-4-4--|
|--4-4-4--4-4-4--|
|--4-4-4--4-4-4--|


Riff B (staccato)
   *  *  *  *
|--------------|
|--------------|
|--------------|
|--2--2--2--2--|
|--2--2--2--2--|
|--2--2--2--2--|

Riff C (staccato)
  * *     * *  *  *
|-------------------|
|-------------------|
|-------------------|
|-2-2-----2-2--2--2-|
|-2-2-----2-2--2--2-|
|-2-2-----2-2--2--2-|

Bend
|-----------------------------------|
|--15------15------15-------15------|
|--18br19--18br19--18br19---18br19--|
|-----------------------------------|
|-----------------------------------|
|-----------------------------------|

Riff D
|-------------|
|-------------|
|-------------|
|--0----0--0--|
|--0----0--0--|
|--0----0--0--|

Riff E
|-------------|
|-------------|
|-------------|
|-2-3-0-2-3-0-|
|-------------|
|-------------|

Riff F
  * * *  * * * * * * *
|----------------------|
|----------------------|
|----------------------|
|-2-2-2--2-2-2-2-2-2-2-|
|-2-2-2--2-2-2-2-2-2-2-|
|-2-2-2--2-2-2-2-2-2-2-|

Intro:
Riff A x4
Riff B x15
Riff A x2

Lyrics:
Riff B x15
Riff A
Riff B x15
Riff A

Chorus:
Riff B x15
Riff C

Interlude:
Riff B x15 (Gtr. II Bend)
Riff B x15 (Gtr. II Bend)

Bridge:
Riff D x4 (Gtr. II Riff E )
Riff D x4 (Gtr. II Riff E )
Riff B x12
Riff B x2  (Gtr. II Bend)

Lyrics:
Riff B x15
Riff A

Chorus:
Riff B x15 (Gtr. II Bend)
Riff B x15 (Gtr. II Bend)

Outro:
Riff F
Riff A x4

I'm sure my timing is off, but this is a very repetitive song so it's easy to get lost 
tabbing it.  Listen to the song to get the timing right before you throw a fit like a 
year-old in the comments.

However, if you have any suggestions or corrections or comments, feel free to leave a comment!

Also, if you really ARE a five year-old, I'd watch out-- Tripp's out of prison! :O
Tap to rate this tab
 
# A B C D E F G H I J K L M N O P Q R S T U V W X Y Z