Static X - Z28 tab

Song: Z28
Band: Static-X
Album: Cult Of Static

Intro: X4
C  :------------------------------------------------|
G  :------------------------------------------------|
D# :------------------------------------------------|
A# :10-10-10-10-10-10-10-10-10-10-10-10-11-11-11-11-|
F  :-8--8--8--8--8--8--8--8--8--8--8--8--8--8--8--8-|
A# :------------------------------------------------|

Verse: X4
C  :----------------------------------------------------------------|
G  :----------------------------------------------------------------|
D# :----------------------------------------------------------------|
A# :----------------------------------------------------8-8-8-8-8-8-|
F  :----------------------------------------------------6-6-6-6-6-6-|
A# :0---0-0---0-0---0-0---0-0---0-0---0-0---0-0---0-0---------------|

Chorus: X4
C  :------------------------------------------------|
G  :------------------------------------------------|
D# :------------------------------------------------|
A# :10-10-10-10-10-10-10-10-10-10-10-10-11-11-11-11-|
F  :-8--8--8--8--8--8--8--8--8--8--8--8--8--8--8--8-|
A# :------------------------------------------------|

Verse: X4
C  :----------------------------------------------------------------|
G  :----------------------------------------------------------------|
D# :----------------------------------------------------------------|
A# :----------------------------------------------------8-8-8-8-8-8-|
F  :----------------------------------------------------6-6-6-6-6-6-|
A# :0---0-0---0-0---0-0---0-0---0-0---0-0---0-0---0-0---------------|


Chorus: X8
C  :------------------------------------------------|
G  :------------------------------------------------|
D# :------------------------------------------------|
A# :10-10-10-10-10-10-10-10-10-10-10-10-11-11-11-11-|
F  :-8--8--8--8--8--8--8--8--8--8--8--8--8--8--8--8-|
A# :------------------------------------------------|

Solo Coming Soon!

Verse: X2
C  :----------------------------------------------------------------|
G  :----------------------------------------------------------------|
D# :----------------------------------------------------------------|
A# :----------------------------------------------------8-8-8-8-8-8-|
F  :----------------------------------------------------6-6-6-6-6-6-| 
A# :0---0-0---0-0---0-0---0-0---0-0---0-0---0-0---0-0---------------|

Chorus: X8
C  :------------------------------------------------|
G  :------------------------------------------------|
D# :------------------------------------------------|
A# :10-10-10-10-10-10-10-10-10-10-10-10-11-11-11-11-|
F  :-8--8--8--8--8--8--8--8--8--8--8--8--8--8--8--8-|
A# :------------------------------------------------|
Tap to rate this tab
 
# A B C D E F G H I J K L M N O P Q R S T U V W X Y Z