Song name
# A B C D E F G H I J K L M N O P Q R S T U V W X Y Z

Static X - This Is Not tab

Help us improve GuitareTab! Take a short survey!
Artist:  Static-X
Song:  This is Not
Tab Type: Guitar
Tabbed by:  Christian / silent_warrior_@hotmail.com

P = Pull off
PM = Palm Mute


This is my 2nd tab...email me if you have any questions, comments, or corrections.  Enjoy.


Tuning:  C F A# D# G C


Intro
C |---------------------------------|     |-----|
G |---------------------------------|     |-----| Sustain this
D#|---------------------------------|     |-----| on the 4th and 8th
A#|---5----5----5---5--5----5-------| x8  |--5--| times only
F |---5----5----5---5--5----5-------|     |--5--|
C |--3p0--3p0--3p0--0--0---3p0------|     |--3--|


Verse Part 1
C |-----------------------|
G |-----------------------|
D#|-----------------------|
A#|---5--5----5---5--5----| x8
F |---5--5----5---5--5----|
C |---0--0----3---0--0----|


Verse Part 2
C |-------------------------|
G |-------------------------|
D#|-------------------------|
A#|--5-5--5--5--5--5--5-----| x4
F |--5-5--5--5--5--5--5-----|
C |--0-0--0--0--3--0--0-----|
     \_/
     PM

Verse Part 1
C |-----------------------|
G |-----------------------|
D#|-----------------------|
A#|---5--5----5---5--5----| x4
F |---5--5----5---5--5----|
C |---0--0----3---0--0----|


Chorus
C |---------|
G |---------|
D#|---------|
A#|--9--7---| x8
F |--9--7---|
C |--9--7---|


C |---------------------------------|     |-----|
G |---------------------------------|     |-----| Sustain this
D#|---------------------------------|     |-----| on the 4th and 8th
A#|---5----5----5---5--5----5-------| x8  |--5--| times only
F |---5----5----5---5--5----5-------|     |--5--|
C |--3p0--3p0--3p0--0--0---3p0------|     |--3--|


Verse Part 1
C |-----------------------|                  
G |-----------------------|
D#|-----------------------|
A#|---5--5----5---5--5----| x8
F |---5--5----5---5--5----|
C |---0--0----3---0--0----|


Verse Part 2
C |-------------------------|
G |-------------------------|
D#|-------------------------|
A#|--5-5--5--5--5--5--5-----| x4
F |--5-5--5--5--5--5--5-----|
C |--0-0--0--0--3--0--0-----|
     \_/
     PM


Verse Part 1
C |-----------------------|
G |-----------------------|
D#|-----------------------|
A#|---5--5----5---5--5----| x4
F |---5--5----5---5--5----|
C |---0--0----3---0--0----|


Chorus
C |---------|
G |---------|
D#|---------|
A#|--9--7---| x8
F |--9--7---|
C |--9--7---|


Bridge - Repeat 4 Times
C |-----------------------|                     |-------|
G |-----------------------|                     |-------|
D#|-----------------------|                     |-------|
A#|-5--5--5--5--5--5--5---| x4 Then Play this:  |-5-5---| x1
F |-5--5--5--5--5--5--5---|                     |-5-5---|
C |-0--0--3--0--0--0--3---|                     |-0-0---|
                                                  \_/
                                                  PM
Chorus
C |---------|
G |---------|
D#|---------|
A#|--9--7---| x8
F |--9--7---|
C |--9--7---|


C |---------------------------------|     |-----|
G |---------------------------------|     |-----| Sustain this
D#|---------------------------------|     |-----| on the 4th and 8th
A#|---5----5----5---5--5----5-------| x8  |--5--| times only
F |---5----5----5---5--5----5-------|     |--5--|
C |--3p0--3p0--3p0--0--0---3p0------|     |--3--|


C |--------------|
G |--------------|
D#|--------------|
A#|--SLIDE DOWN--|
F |--SLIDE DOWN--|
C |--SLIDE DOWN--|


Related for This Is Not tab