Static X - Cannibal tab

Tabbed by: Joshua Garcia (halofreak731@aol.com)

Tabs for the song: Cannibal by Static-X
Please rate and let me know if you have any corrections. Thank you.

For those who have been waiting for a solo, wait no more! Enjoy!

Tuning: Drop A# (A# F A# D# G C)


Intro (0:01-0:12)
C ||-----------------------------------|
G ||-----------------------------------|
D#||-----------------------------------|
A#||-0-0-0-0-0-0-0-0-0-0-0-0-0-0-0-0---|  X2
F ||-0-0-0-0-0-0-0-0-0-0-0-0-0-0-0-0---|
A#||-0-0-0-0-0-0-0-0-0-0-0-0-0-0-0-0---|
     . . . . . . . . . . . . . . . .


(0:27-0:38)
C ||-------------------------------------------------------------------|
G ||-------------------------------------------------------------------|
D#||-------------------------------------------------------------------|
A#||-000000000000000000000000000000000000000000000000000000000000000---|
F ||-000000000000000000000000000000000000000000000000000000000000000---|
A#||-000000000000000000000000000000000000000000000000000000000000000---|
     ...............................................................


Verse/Chorus (0:39-1:26)
C ||---------------------------------|
G ||---------------------------------|
D#||---------------------------------|
A#||--8-/7--0-0-0-0-0-0-0-0-0-0-0-0--|
F ||--6-/5--0-0-0-0-0-0-0-0-0-0-0-0--|
A#||--------0-0-0-0-0-0-0-0-0-0-0-0--|
            . . . . . . . . . . . .


Bridge (1:27-1:38)
C ||-------------------------------------------------------------------|
G ||-------------------------------------------------------------------|
D#||-------------------------------------------------------------------|
A#||-000000000000000000000000000000000000000000000000000000000000000---|
F ||-000000000000000000000000000000000000000000000000000000000000000---|
A#||-000000000000000000000000000000000000000000000000000000000000000---|
     ...............................................................


Verse-Outro (1:39-2:47)
C ||---------------------------------|
G ||---------------------------------|
D#||---------------------------------|
A#||--8-/7--0-0-0-0-0-0-0-0-0-0-0-0--|
F ||--6-/5--0-0-0-0-0-0-0-0-0-0-0-0--|
A#||--------0-0-0-0-0-0-0-0-0-0-0-0--|
            . . . . . . . . . . . .


Solo (2:03-2:27)
C ||-------------------------------------------------------------------|
G ||------------1517181715---------------------------------------------|
D#||-----------------------171614------------1416171614----------------|
A#||--------12--------------------1716141617------------171614-17b19---|
F ||-----12------------------------------------------------------------|
A#||--12---------------------------------------------------------------|


C ||-------------------------------------------------------------------------|
G ||------------1517181715---------------------------------------------------|
D#||-----------------------171614------------1416171614--------17b19r17b19\--|
A#||--------12--------------------1716141617------------171614---------------|
F ||-----12------------------------------------------------------------------|
A#||--12---------------------------------------------------------------------|


C ||---------------------------------------------------------------------------|
G ||-/15-18b20r18-------1517181715---------------------------------------------|
D#||----------------17-------------171614------------1416171614----------------|
A#||--------------------------------------1716141617------------171614--17-15--|
F ||---------------------------------------------------------------------------|
A#||---------------------------------------------------------------------------|


C ||---------------------------------------------------------|
G ||---------------------------------------------------------|
D#||---------------------------------------------------------|
A#||-*17b19r17--15-17-15-------------------------------------|
F ||---------------------17-15---*10b12r10--8-10-8-----------|
A#||-----------------------------------------------12-10-\---|


C ||-------------------------------------------------|
G ||-15----15-15-15-15-15-15---16----16-16---15------|
D#||-17b19-19-19-19-19-19-19---18b20-20-20---17b19---|
A#||-------------------------------------------------|
F ||-------------------------------------------------|
A#||-------------------------------------------------|


C ||-------15--------------15--------------15h17h18p17p15---------------------|
G ||-/1518----1815---/1518----1815---/1518------------------------------------|
D#||------------------------------------------------------17-14-17-17-17b21r--|
A#||--------------------------------------------------------------------------|
F ||--------------------------------------------------------------------------|
A#||--------------------------------------------------------------------------|


C ||-------------------------------------------------|
G ||-15----15-15-15-15-15-15---16----16-16---18------|
D#||-17b19-19-19-19-19-19-19---18b20-20-20---20b22---|
A#||-------------------------------------------------|
F ||-------------------------------------------------|
A#||-------------------------------------------------|


C ||-----------------------------------1517181715-1719201917--22b25r22v---|
G ||--1517181715-1718201817-1820212018------------------------------------|
D#||----------------------------------------------------------------------|
A#||----------------------------------------------------------------------|
F ||----------------------------------------------------------------------|
A#||----------------------------------------------------------------------|


Verse (2:48-2:50)
C ||----------------------------------|
G ||----------------------------------|
D#||----------------------------------|
A#||--8-/7--0-0-0-0-0-0-0-0-0-0-0-X---|
F ||--6-/5--0-0-0-0-0-0-0-0-0-0-0-X---|
A#||--------0-0-0-0-0-0-0-0-0-0-0-X---|
            . . . . . . . . . . .


Outro (2:51-3:13)
C ||-----------------------------------|
G ||-----------------------------------|
D#||-----------------------------------|
A#||-0-0-0-0-0-0-0-0-0-0-0-0-0-0-0-0---|
F ||-0-0-0-0-0-0-0-0-0-0-0-0-0-0-0-0---|
A#||-0-0-0-0-0-0-0-0-0-0-0-0-0-0-0-0---|
     . . . . . . . . . . . . . . . .


C ||-----------------------------------------------------------13b1613v--|
G ||--131210--------131210--------131210--------131210-------------------|
D#||---------131210--------131210--------131210--------131210------------|
A#||---------------------------------------------------------------------|
F ||---------------------------------------------------------------------|
A#||---------------------------------------------------------------------|


C ||-----------------------------------|
G ||-----------------------------------|
D#||-----------------------------------|
A#||-0-0-0-0-0-0-0-0-0-0-0-0-0-0-0-0---|
F ||-0-0-0-0-0-0-0-0-0-0-0-0-0-0-0-0---|
A#||-0-0-0-0-0-0-0-0-0-0-0-0-0-0-0-0---|
     . . . . . . . . . . . . . . . .


C ||--13101310------13p1013p10------13101310------13p1013p10------1310-------15b17--|
G ||-----------1310------------1310----------1310------------1310------1310---------|
D#||--------------------------------------------------------------------------------|
A#||--------------------------------------------------------------------------------|
F ||--------------------------------------------------------------------------------|
A#||--------------------------------------------------------------------------------|


C ||-----------------------------------|
G ||-----------------------------------|
D#||-----------------------------------|
A#||-0-0-0-0-0-0-0-0-0-0-0-0-0-0-0-0---|
F ||-0-0-0-0-0-0-0-0-0-0-0-0-0-0-0-0---|
A#||-0-0-0-0-0-0-0-0-0-0-0-0-0-0-0-0---|
     . . . . . . . . . . . . . . . .


C ||--15b17--1513------15b17--1513------17b21-17-15---------------20b22---|
G ||-------------1513-------------1513--------------18b20--18-15----------|
D#||----------------------------------------------------------------------|
A#||----------------------------------------------------------------------|
F ||----------------------------------------------------------------------|
A#||----------------------------------------------------------------------|


C ||-----------------------------------|
G ||-----------------------------------|
D#||-----------------------------------|
A#||-0-0-0-0-0-0-0-0-0-0-0-0-0-0-0-0---|
F ||-0-0-0-0-0-0-0-0-0-0-0-0-0-0-0-0---|
A#||-0-0-0-0-0-0-0-0-0-0-0-0-0-0-0-0---|
     . . . . . . . . . . . . . . . .




Tablature Legend
----------------
 h   - hammer-on
 p   - pull-off
 b   - bend
 r   - release bend
 *   - pinch harmonic
 '   - natural harmonic
 x   - mute note
 .   - palm mute
 /   - slide down
 \   - slide up
Tap to rate this tab
 
# A B C D E F G H I J K L M N O P Q R S T U V W X Y Z