Song name
# A B C D E F G H I J K L M N O P Q R S T U V W X Y Z

Static X - Push It tab

Push It
Static X

Tuning: Drop D (with thick E string to C): (CGCFAD)

Intro:
D-------------------------------------------------| 
A-------------------------------------------------| 
F-8--------8----------------8--------8------------| X6
C-------------------------------------------------| 
G-------------------------------------------------| 
C------0---------0---------------0---------0------|

VERSE 1: X2 
D-------------------|
A-------------------|
F-------------------|
C-------------------|<-X3
G--0-0-2-0-0-0-2--- |
C--0-0-2-0-0-0-2----|

D-------------------|
A-------------------|
F-------------------|
C-------------------|
G--0-0-2-0-0-0-3--- |
C--0-0-2-0-0-0-3----|
 p.m............

Chorus:
D-------------------|
A-------------------|
F-------------------|
C-------------------|<-X3
G--0-0-2-0-0-0-2--- |
C--0-0-2-0-0-0-2----|

D---------------------| 
A---------------------| 
F-8--------8----------| 
C---------------------| 
G---------------------| 
C------0---------0----|

Verse 1: X2
D-------------------------------------------------| 
A-------------------------------------------------| 
F-8--------8----------------8--------8------------|<-X6
C-------------------------------------------------| 
G-------------------------------------------------| 
C------0---------0---------------0---------0------|

Verse 2:
D--------------------13b--| 
A-------------------------| 
F-------------------------|  
C-------------------------| 
G--0-0-2-0-0-0------------| 
C--0-0-2-0-0-0------------| 

Verse 3: X2
D-------------------|
A-------------------|
F-------------------|
C-------------------|<-X3
G--0-0-2-0-0-0-2--- |
C--0-0-2-0-0-0-2----|

D----------------|
A----------------|
F----------------|
C----------------|
G--3----------1--| 
C--3----------1--|

End:
D---------------------------|
A---------------------------|
F---------------------------|
C---------------------------|
G--0-0-3-0-0-3-0-0-3--------|
C--0-0-3-0-0-3-0-0-3--------|

If I am missing a piece or two (or more), feel free to leave a comment.
Tap to rate this tab
 
# A B C D E F G H I J K L M N O P Q R S T U V W X Y Z