Song name
# A B C D E F G H I J K L M N O P Q R S T U V W X Y Z

Static X - Trance Is The Motion tab

Artist: Static-X
Album: Wisconsin Death Trip
Song: The Trance is the Motion
Tabbed: Camren Braley

*:Harmonic



Song starts with a bass intro

Guitar Intro (Harmonic is complicated to do, but its correct)
|--------------------------|--------------------------|
|---7*------7*-------------|---7*------7*-------------|
|---5*------5*-------------|---5*------5*-------------|
|--------------------------|--------------------------|
|--------------------------|--------------------------|
|-0----0-0-----0-00-00-0-0-|-0----0-0------0-00-0-0-0-|
pm.    . .     . .. .. . .   .    . .      . .. . . .

Verse (the 3rd fret harm is a little past into the 4th
fret and the 4th fret harm is right before the 5th fret)
|--------------|
|----7*--------|
|-5*-----------|
|--------------|
|---------4*---|
|-------3*-----|


Chorus
|-------------|
|-------------|
|-------------|
|-0---------1-|
|-0---------1-|
|-0---------1-|

Thats all of the parts.
Tap to rate this tab
# A B C D E F G H I J K L M N O P Q R S T U V W X Y Z