Song name
# A B C D E F G H I J K L M N O P Q R S T U V W X Y Z

Static X - Im With Stupid tab

Help us improve GuitareTab! Take a short survey!
Artists: Static-X
Song: I'm With Stupid
Tuning: C G C F A D

This is how the song sounds to me. If anybody thinks it's diffrent then let me know.

~ =Hold
. =P.M.
\ =Slide

Intro
D|-------------------------------------------------|
A|-------------------------------------------------|
F|-------------------------------------------------|
C|-------------------------------------------------| x4
G|-00-00-0-00-00-0-00-00-000-13~~------------------|
C|-00-00-0-00-00-0-00-00-000-13~~------------------|

Chorus
D|-------------------------------------------------|
A|-------------------------------------------------|
F|-------------------------------------------------|
C|-------------------------------------------------| x2
G|-22-22-2-22-22-2-22-22-222-3~~-------------------|
C|-22-22-2-22-22-2-22-22-222-3~~-------------------|
PM .........................
Same beat as the intro.

Verse
D|-------------------------------------------------|
A|-------------------------------------------------|
F|-------------------------------------------------|
C|-2-1-1--2-1-1--2-1-1--2-3------------------------| x3
G|-2-1-1--2-1-1--2-1-1--2-3------------------------|
C|-2-1-1--2-1-1--2-1-1--2-3------------------------|


D|-------------------------------------------------|
A|-------------------------------------------------|
F|-------------------------------------------------|
C|-------------------------------------------------| x1
G|-x\\\\\\\\\\\\\\\\\\\\\\\------------------------|
C|-x\\\\\\\\\\\\\\\\\\\\\\\------------------------|
Before you go back to the chorus again there's a pick slide from the bottom to the top 
the guitar.

Chorus
D|-------------------------------------------------|
A|-------------------------------------------------|
F|-------------------------------------------------|
C|-------------------------------------------------| x4
G|-22-22-2-22-22-2-22-22-222-3~~-------------------|
C|-22-22-2-22-22-2-22-22-222-3~~-------------------|
PM .........................

Intro
D|-------------------------------------------------|
A|-------------------------------------------------|
F|-------------------------------------------------|
C|-------------------------------------------------| x4
G|-00-00-0-00-00-0-00-00-000-13~~------------------|
C|-00-00-0-00-00-0-00-00-000-13~~------------------|

Verse
D|-------------------------------------------------|
A|-------------------------------------------------|
F|-------------------------------------------------|
C|-2-1-1--2-1-1--2-1-1--2-3------------------------| x4
G|-2-1-1--2-1-1--2-1-1--2-3------------------------|
C|-2-1-1--2-1-1--2-1-1--2-3------------------------|

Chorus
D|-------------------------------------------------|
A|-------------------------------------------------|
F|-------------------------------------------------|
C|-------------------------------------------------| x4
G|-22-22-2-22-22-2-22-22-222-3~~-------------------|
C|-22-22-2-22-22-2-22-22-222-3~~-------------------|
PM .........................

Intro
D|-------------------------------------------------|
A|-------------------------------------------------|
F|-------------------------------------------------|
C|-------------------------------------------------| x4
G|-00-00-0-00-00-0-00-00-000-13~~------------------|
C|-00-00-0-00-00-0-00-00-000-13~~------------------|

Then there is a break here where Wayne is saying stupid with some weird lady saying 
about a shovel. Then it goes to this.

Chorus
D|-------------------------------------------------|
A|-------------------------------------------------|
F|-------------------------------------------------|
C|-------------------------------------------------| x4
G|-22-22-2-22-22-2-22-22-222-3~~-------------------|
C|-22-22-2-22-22-2-22-22-222-3~~-------------------|
PM .........................

Another break With strange sounds.

Intro
D|-------------------------------------------------|
A|-------------------------------------------------|
F|-------------------------------------------------|
C|-------------------------------------------------| x4
G|-00-00-0-00-00-0-00-00-000-13~~------------------|
C|-00-00-0-00-00-0-00-00-000-13~~------------------|

Verse
D|-------------------------------------------------|
A|-------------------------------------------------|
F|-------------------------------------------------|
C|-2-1-1--2-1-1--2-1-1--2-3------------------------| x4
G|-2-1-1--2-1-1--2-1-1--2-3------------------------|
C|-2-1-1--2-1-1--2-1-1--2-3------------------------|

Intro x4
Chorus x2
Verse x3
Slide x1
Chorus x4
Intro x4
Verse x4
Chorus x4
Intro x4
BREAK
Chorus x4
BREAK
Intro x4
Verse x4

Well hope this helps.E-mail if anything is wrong.

ICPMUSHROOMKNOT@YAHOO.COM
Related for Im With Stupid tab