Song name
# A B C D E F G H I J K L M N O P Q R S T U V W X Y Z

Static X - Otsego Undead tab

Song: Otsego Undead
Artist:  Static-X
Album: Machine (2001)
Tab Type:  Guitar

Tabbed by Christian / silent_warrior_@hotmail.com

Very easy song..but very quick palm mutes.  Email me with your comments please.

Tuning: C F A# D# G C


Intro
|--------|     |-----------|
|--------|     |-----------|
|--------|     |-----------|
|--0--0--| x1  |--3--0--0--| x7
|--0--0--|     |--3--0--0--|
|--0--0--|     |--3--0--0--|


|--------|     |-----------|
|--------|     |-----------|
|--------|     |-----------|
|--0--0--| x1  |--3--0--0--| x7
|--0--0--|     |--3--0--0--|
|--0--0--|     |--3--0--0--|


Chrous - "Otsego, otsego, otsego..."
|--------|     |-----------|
|--------|     |-----------|
|--------|     |-----------|
|--0--0--| x1  |--3--0--0--| x7
|--0--0--|     |--3--0--0--|
|--0--0--|     |--3--0--0--|


|--------|     |-----------|
|--------|     |-----------|
|--------|     |-----------|
|--0--0--| x1  |--3--0--0--| x7
|--0--0--|     |--3--0--0--|
|--0--0--|     |--3--0--0--|


Verse - No Guitar


Chrous - "Otsego, otsego, otsego..."
|--------|     |-----------|
|--------|     |-----------|
|--------|     |-----------|
|--0--0--| x1  |--3--0--0--| x7
|--0--0--|     |--3--0--0--|
|--0--0--|     |--3--0--0--|


|--------|     |-----------|
|--------|     |-----------|
|--------|     |-----------|
|--0--0--| x1  |--3--0--0--| x7
|--0--0--|     |--3--0--0--|
|--0--0--|     |--3--0--0--|


Verse - No Guitar


Bridge
|-----------|     |-------------|
|-----------|     |-------------|
|-----------|     |-------------|
|--0-0-0-3--| x1  |--3-0-0-0-3--| x7
|--0-0-0-3--|     |--3-0-0-0-3--|
|--0-0-0-3--|     |--3-0-0-0-3--|
\___________Palm Mute___________/


|-----------|     |-------------|
|-----------|     |-------------|
|-----------|     |-------------|
|--0-0-0-3--| x1  |--3-0-0-0-3--| x7
|--0-0-0-3--|     |--3-0-0-0-3--|
|--0-0-0-3--|     |--3-0-0-0-3--|
\___________Palm Mute___________/


Chorus
|-----------|     |-------------|
|-----------|     |-------------|
|-----------|     |-------------|
|--0-0-0-3--| x1  |--3-0-0-0-3--| x7
|--0-0-0-3--|     |--3-0-0-0-3--|
|--0-0-0-3--|     |--3-0-0-0-3--|
\___________Palm Mute___________/


|-----------|     |-------------|
|-----------|     |-------------|
|-----------|     |-------------|
|--0-0-0-3--| x1  |--3-0-0-0-3--| x7
|--0-0-0-3--|     |--3-0-0-0-3--|
|--0-0-0-3--|     |--3-0-0-0-3--|
\___________Palm Mute___________/


|--------|     |-----------|
|--------|     |-----------|
|--------|     |-----------|
|--0--0--| x1  |--3--0--0--| x7
|--0--0--|     |--3--0--0--|
|--0--0--|     |--3--0--0--|


|--------|     |-----------|
|--------|     |-----------|
|--------|     |-----------|
|--0--0--| x1  |--3--0--0--| x7
|--0--0--|     |--3--0--0--|
|--0--0--|     |--3--0--0--|

Chorus
|--------|     |-----------|
|--------|     |-----------|
|--------|     |-----------|
|--0--0--| x1  |--3--0--0--| x7
|--0--0--|     |--3--0--0--|
|--0--0--|     |--3--0--0--|

Chorus
|--------|     |-----------|
|--------|     |-----------|
|--------|     |-----------|
|--0--0--| x1  |--3--0--0--| x7
|--0--0--|     |--3--0--0--|
|--0--0--|     |--3--0--0--|

Bridge
|-----------|     |-------------|
|-----------|     |-------------|
|-----------|     |-------------|
|--0-0-0-3--| x1  |--3-0-0-0-3--| x7
|--0-0-0-3--|     |--3-0-0-0-3--|
|--0-0-0-3--|     |--3-0-0-0-3--|
\___________Palm Mute___________/


|-----------|     |-------------|
|-----------|     |-------------|
|-----------|     |-------------|
|--0-0-0-3--| x1  |--3-0-0-0-3--| x7
|--0-0-0-3--|     |--3-0-0-0-3--|
|--0-0-0-3--|     |--3-0-0-0-3--|
\___________Palm Mute___________/


End
|-----------|     |-------------|
|-----------|     |-------------|
|-----------|     |-------------|
|--0-0-0-3--| x1  |--3-0-0-0-3--| x7
|--0-0-0-3--|     |--3-0-0-0-3--|
|--0-0-0-3--|     |--3-0-0-0-3--|
\___________Palm Mute___________/

Tap to rate this tab
# A B C D E F G H I J K L M N O P Q R S T U V W X Y Z