Song name
# A B C D E F G H I J K L M N O P Q R S T U V W X Y Z

Static-x - I Am tab

Opening is just an open palm muted strum on the C,G, and C strings,
with a little distortion.


(0:25)
D:----------------------------------------|
A:----------------------------------------|
F:--------10--------10--------10----------|
C:--------x---------x---------x-----------|
G:--------8---------8---------8-----------|
C:---0-0------0-00-------0-0--------------|

D:---------------------------------------------|
A:---------------------------------------------|
F:---------10----------------------------------|
C:---------x------3-0--3-0--3-0--3-00-5-5-3-0--|
G:---------8------3-0--3-0--3-0--3-00-5-5-3-0--|
C:---0-00---------3-0--3-0--3-0--3-00-5-5-3-0--|

(Chorus)
D:---------------------------------------------------------|
A:---------------------------------------------------------|
F:---------------------------------------------------------|
C:0000--10-10-10--0-0--10-10-10--0-0--10-10-10--0-0--1-1-1-|
G:0000--10-10-10--0-0--10-10-10--0-0--10-10-10--0-0--1-1-1-|
C:0000--10-10-10--0-0--10-10-10--0-0--10-10-10--0-0--1-1-1-|

(1:06)
D:-------------------------------------------|
A:-------------------------------------------|
F:--------10--------10--------10------10-----|
C:--------x---------x---------x-------x------|
G:--------8---------8---------8-------8------|
C:---0-0------0-00-------0-0-----0-00--------|

("Brush the surface off..")
D:----------------------------------------|
A:----------------------------------------|
F:----------------------------------------|
C:---3-0--3-0--3-0--3-0--3-0--3-0---------|
G:---3-0--3-0--3-0--3-0--3-0--3-0---------|
C:---3-0--3-0--3-0--3-0--3-0--3-0---------|

(Chorus)
D:---------------------------------------------------------|
A:---------------------------------------------------------|
F:---------------------------------------------------------|
C:0000--10-10-10--0-0--10-10-10--0-0--10-10-10--0-0--1-1-1-|
G:0000--10-10-10--0-0--10-10-10--0-0--10-10-10--0-0--1-1-1-|
C:0000--10-10-10--0-0--10-10-10--0-0--10-10-10--0-0--1-1-1-|

Open palm mute again

D:----------------------------------------|
A:----------------------------------------|
F:----------------------------------------|
C:---3-0--3-0--3-0--3-00-5-5-3-0----------|
G:---3-0--3-0--3-0--3-00-5-5-3-0----------|
C:---3-0--3-0--3-0--3-00-5-5-3-0----------|

D:----------------------------------------|
A:----------------------------------------|
F:-----10-------10------10-------10-------|
C:-----x--------x-------x--------x--------|
G:-----8--------8-------8--------8--------|
C:0000-----0-00-----0-0-----0-00----------|


(final chorus)
D:---------------------------------------------------------|
A:---------------------------------------------------------|
F:---------------------------------------------------------|
C:0000--10-10-10--0-0--10-10-10--0-0--10-10-10--0-0--1-1-1-|
G:0000--10-10-10--0-0--10-10-10--0-0--10-10-10--0-0--1-1-1-|
C:0000--10-10-10--0-0--10-10-10--0-0--10-10-10--0-0--1-1-1-|

The last bit is just open on C,G and C, I think.

have fun.
Tap to rate this tab
 
# A B C D E F G H I J K L M N O P Q R S T U V W X Y Z