Guitaretab - guitar tabs
Song name
# A B C D E F G H I J K L M N O P Q R S T U V W X Y Z

Static X - A Dios Alma Perdida tab

Band-STATIC-X
Song- a dios alma perdida
Tuning:C-G-C-F-A-D
[ Tab from: http://www.guitaretab.com/s/static-x/32915.html ]
THE SOUND FX LAST FOR 38 SEC.
THEN
D|-----------------------------------------|
A|-----------------------------------------|
F|-----------------------------------------|x1    
C|--5-----5-----0--------------------------|
G|--5-----5-----0--------------------------|
C|--5-----5-----0--------------------------|
                Let ring 0:18
             
D|-------------------------------------------------------------|
A|-------------------------------------------------------------|
F|-------------------------------------------------------------|
C|---3---------------------5/7/9/7\5\3\2\1------1-1-1----0-----|x3
G|---3---------------------5/7/9/7\5\3\2\1------1-1-1----0-----|
C|---3---------------------5/7/9/7\5\3\2\1------1-1-1----0-----|
     Let ring  0:09                                      Ring 0:18 1st time
      "        0:08 2nd & 3rd time                       "    0:18 2nd time
                                                         "    0:16 3rd time

D|-----------------------------------------------------------|
A|-----------------------------------------------------------|
F|-----------------------------------------------------------|
C|---3----------------5/7/9\7\5\3\2\1-------1-1-1--0---------|
G|---3----------------5/7/9\7\5\3\2\1-------1-1-1--0---------|
C|---3----------------5/7/9\7\5\3\2\1-------1-1-1--0---------|
     Let ring 0:08                                 ring 0:08

Then
D|-----|
A|-----|
F|-----|
C|--0--|
G|--0--|
C|--0--|
    Let ring for 1:07

After the chord dies out completely the rest is silent.this is my 1st tab so please rate.
Related for A Dios Alma Perdida tab
×
Best way to learn
"A Dios Alma Perdida"