Song name
# A B C D E F G H I J K L M N O P Q R S T U V W X Y Z

Static X - Sweat Of The Bud tab

Help us improve GuitareTab! Take a short survey!
                     Static-X - Sweat Of A Bud

This is a pretty simple and awesome song.  Listen to the song to get the
rhythm.  In drop D to get the crunch-low sound.  Have a hard distortion
with modpitch on it.

/ = Slide Up
\ = Slide Down
* = Harmonic Note

E|---------------------------------|
B|---------------------------------|
G|---------------------------------|
D|-9\1-----------------------------|
A|-9\1-----------------------------|
D|-9\1-----------------------------|

       Play 16 times

E|---------------------------------|---------------------------------|
B|---------------------------------|---------------------------------|
G|*-------------------------------*|---------------------------------|
D|*0-0-0-0-0-0-0-0-0--------------*|-0-0-0-----0-0-0-----------------|
A|-0-0-0-0-0-0-0-0-0---------------|-0-0-0-----0-0-0-----------------|
D|-0-0-0-0-0-0-0-0-0---------------|-0-0-0-5*--0-0-0-5*-3*-----------|


E|---------------------------------|
B|---------------------------------|
G|---------------------------------|
D|-0000000000000000000000000000000-|
A|-0000000000000000000000000000000-|
D|-0000000000000000000000000000000-|

That's basically the whole song.  It's easy to figure out.  If you have
any comments, suggestions or found an error in the tab email me at
Staind1110@aol.com.
Related for Sweat Of The Bud tab