Song name
# A B C D E F G H I J K L M N O P Q R S T U V W X Y Z

Static X - Trance In The Motion tab

Song: The Trance is the Motion
Artist: Static-X
Tabs By: Shane Gubersky

* = Harmonics

Riff #1
|-------------------------------------||-------------------------------------|
|----7*-------7*----------------------||----7*-------7*----------------------|
|----5*-------5*----------------------||----5*-------5*----------------------|
|-------------------------------------||-------------------------------------|
|-------------------------------------||-------------------------------------|
|-0------0-0------0--0-0-0-0--0--0----||-0------0-0------0--0-0-0-0--0-------|
pm-      ---      -  -------  -  -       -      ---      -  -------  -

Riff #2
|---------------------------|
|----7*---------------------|
|-5*------------------------|
|-----------------5*--------|
|--------------4*-----------|
|---------------------------|

Chorus
|---------------------|
|---------------------|
|---------------------|
|-2----3----2----3----|
|-2----3----2----3----|
|-0----1----0----1----|

Verse #1
|----------|
|----------|
|----------|
|-2--------|
|-2--------|
|-0--------|

Verse #2
|--------------|
|----7*--------|
|-5*-----------|
|--------------|
|--------------|
|--------------|

Riff #1  x2
Riff #2  x2
Riff #1  x2
Riff #2  x2
Chorus   x2
Verse #1 x1
Chorus   x1
Riff #1  x2
Riff #2  x2
Verse #2 x3
Chorus   x3
Tap to rate this tab
 
# A B C D E F G H I J K L M N O P Q R S T U V W X Y Z