Song name
# A B C D E F G H I J K L M N O P Q R S T U V W X Y Z

Static X - The Only tab

gtr.1
|---------------|
|---------------|
|-------3--5----|x2
|-0--3--3--5----|
|-0--3--1--3--4-|
|-0--3----------|

gtr.2
|-------------------------------------------|
|-------------------------------------------|
|-14-------12------10-------8------10-------|
|--x-(16)---x-(16)--x-(16)--x-(x8)--x-(x8)--|
|-12-------10-------8-------6-------8-------|
|-------------------------------------------|

gtr.1
|-10-------12-------13-------12-----|
|-----10--------10-------10------10-|
|-----------------------------------|
|-----------------------------------|x4
|-----------------------------------|
|-----------------------------------|


|---------------|
|---------------|
|-------3--5----|x2
|-0--3--3--5----|
|-0--3--1--3--4-|
|-0--3----------|

gtr.2
|-------------------------------------------|
|-------------------------------------------|
|-14-------12------10-------8------10-------|
|--x-(16)---x-(16)--x-(16)--x-(x8)--x-(x8)--|
|-12-------10-------8-------6-------8-------|
|-------------------------------------------|

gtr.1
|-10-------12-------13-------12-----|
|-----10--------10-------10------10-|
|-----------------------------------|
|-----------------------------------|x4
|-----------------------------------|
|-----------------------------------|


|---------------|
|---------------|
|-------3--5----|x2
|-0--3--3--5----|
|-0--3--1--3--4-|
|-0--3----------|

gtr.2
|-------------------------------------------|
|-------------------------------------------|
|-14-------12------10-------8------10-------|
|--x-(16)---x-(16)--x-(16)--x-(x8)--x-(x8)--|
|-12-------10-------8-------6-------8-------|
|-------------------------------------------|


solo
|----------------------------------------------|
|----------------------------------------------|
|----------------------------------------------|
|--0--3-2-----3-2----------------0-----0--2-3--|
|----------3-------3--0-1-0-1-3-----3----------|
|----------------------------------------------|


|---------------|
|---------------|
|-------3--5----|
|-0--3--3--5----|
|-0--3--1--3--4-|
|-0--3----------|

|-------------------------------------------|
|-------------------------------------------|
|-14-------12------10-------8------10-------|
|--x-(16)---x-(16)--x-(16)--x-(x8)--x-(x8)--|
|-12-------10-------8-------6-------8-------|
|-------------------------------------------|

|------------------------------------------|
|------------------------------------------|
|------------------------------------------|
|------------------------------------------|
|---3/2-2--3/2-2--3/2-2--3/2-2------5b-----|
|---3/2-2--3/2-2--3/2-2--3/2-2------5b-----|

|-------------------------------|
|-------------------------------|
|-------------------------------|
|-------------------------------|x3
|--3/2--2-2---3/2--2-2----5b----|
|--3/2--2-2---3/2--2-2----5b----|

|------------|
|------------|
|------------|
|------------|
|--3/2--2----|
|--3/2--2----|

|---------------|
|---------------|
|-------3--5----|
|-0--3--3--5----|
|-0--3--1--3--4-|
|-0--3----------|


|-------------------------------------------|
|-------------------------------------------|
|-14-------12------10-------8------10-------|
|--x-(16)---x-(16)--x-(16)--x-(x8)--x-(x8)--|
|-12-------10-------8-------6-------8-------|
|-------------------------------------------|

|-----------------------|
|-----------------------|
|-----------------------|
|-----------------------|
|--0---0-0----0---0-0---|
|--0---0-0----0---0-0---|


iight dis is a complete song
Tap to rate this tab
 
# A B C D E F G H I J K L M N O P Q R S T U V W X Y Z