Song name
# A B C D E F G H I J K L M N O P Q R S T U V W X Y Z

Static X - Control It tab

control it-static-x

riff 1
D|-----------------------|
A|-----------------------|
F|-----------------------|
C|-2--2h4-2--2--2h4-2--0-|
G|-2--2h4-2--2--2h4-2--0-|
C|-2--2h4-2--2--2h4-2--0-|


riff2
|-----------------|
|-----------------|
|-----------------|
|-2--4-2--2--4-2--|
|-2--4-2--2--4-2--|
|-2--4-2--2--4-2--|


riff3
|---------------|-----------------|-----------------|-----------------|
|---------------|-----------------|-----------------|-----------------|
|---------------|-----------------|-----------------|-----------------|
|-0-0-0-0-0-0-0-|-5-5-5-5-5-5-5-5-|-4-4-4-4-4-4-4-4-|-2-2-2-2-2-2-2-2-|
|-0-0-0-0-0-0-0-|-5-5-5-5-5-5-5-5-|-4-4-4-4-4-4-4-4-|-2-2-2-2-2-2-2-2-|
|-0-0-0-0-0-0-0-|-5-5-5-5-5-5-5-5-|-4-4-4-4-4-4-4-4-|-2-2-2-2-2-2-2-2-|

just a repitition of those
sorry dont know the high parts
Tap to rate this tab
# A B C D E F G H I J K L M N O P Q R S T U V W X Y Z