Song name
# A B C D E F G H I J K L M N O P Q R S T U V W X Y Z

Static X - Anything But This tab

Author/Artist:Static X
Title:Anything But This
Album:Resident Evil Sndtrk
Tabbed by:Robbie K

tr= tremolo pick

C |----------------------------------------------|
G |----------------------------------------------|
Eb|----------------------------------------------|gtr1
Bb|----------------------------------------------|
F |----------------------------------------------|
C |-0-0-0-0-0-0-0-1-1-1-1-1-1-1-3-3-3-3-3--3-3---|
    ..........................................

C |----------------------------------------------|
G |----------------------------------------------|
Eb|----------------------------------------------|both gtrs
Bb|----------------------------------------------|
F |-2-2-2-2-2-2-2-3-3-3-3-3-3-3-5-5-5-5-5--5-5---|
C |-0-0-0-0-0-0-0-1-1-1-1-1-1-1-3-3-3-3-3--3-3---|
    ..........................................

C |-----------------------|
G |-----------------------|
Eb|-----------------------|
Bb|-------------------7b--|
F |-5-5-5-x--5-5-5-x--5b--|
C |-----------------------|

Solo 1 
     tr  tr      tr  tr  tr  tr  tr   tr  tr      tr  tr  tr  tr
C |--------------------------------------------------------------|
G |--15--16--15--13--15--11--13--10---15--16--15--13--15--11--13-|
Eb|--------------------------------------------------------------| 2x
Bb|--------------------------------------------------------------|
F |--------------------------------------------------------------|
C |--------------------------------------------------------------|

C |--------------------------------|
G |--15--------13--------11--------|
Eb|-----14--12----12--10----10--9--|
Bb|--------------------------------|
F |--------------------------------|
C |--------------------------------|

Solo 2
     tr              tr        tr      tr
C |------------------20-----------------------|
G |--15------------------------15------16-----|
Eb|-------------------------------------------| play solo 1 again
Bb|-------------------------------------------| 
F |-------------------------------------------|
C |-------------------------------------------|

Outro(fading)
C |-----------------------|
G |-----------------------|
Eb|-----------------------|
Bb|-------------------9b--|
F |-5-5-5-x--5-5-5-x--7b--|
C |-----------------------|
Tap to rate this tab
 
# A B C D E F G H I J K L M N O P Q R S T U V W X Y Z