Song name
# A B C D E F G H I J K L M N O P Q R S T U V W X Y Z

Static X - Dirthouse tab

Help us improve GuitareTab! Take a short survey!
it's very easy but it sounds great

intro
C-----------------|
G-----------------|
D#----------------|
A#-xxx-xxx-xxx-xxx
F--xxx-xxx-xxx-xxx
A#-xxx-xxx-xxx-xxx

verse & chorus
C------------------|
G------------------|
D#-----------------|
A#-----------------|
F--2-2-2-2-2-2-2-2-|
A#-2-2-2-2-2-2-2-2-|
   ............... p.m.

interlude
C--------------------------|
G--15-14-15-14-15-14-15-14-|
D#-------------------------|
A#-------------------------|
F--------------------------|
A#-------------------------|

bridge
C--------------|
G--------------|
D#-------------|
A#-0-------0-0-|
F--0-------0-0-|
A#-0-------0-0-|
Related for Dirthouse tab