Song name
# A B C D E F G H I J K L M N O P Q R S T U V W X Y Z

Static X - In A Bag tab

Help us improve GuitareTab! Take a short survey!
Standard Drop D Tuning

E|------------------------------------|
B|------------------------------------|
G|------------------------------------|
D|----000--333--444----000--333--444--|
A|----000--333--444----000--333--444--|
D|----000--333--444----000--333--444--|
pm.....................................


E|------------------------------------|
B|------------------------------------|
G|------------------------------------|
D|------------------------------------|
A|---0-0-0----------------------------|
D|---0-0-0----------------------------|
    got to get it out of me

Chorus:
E|---------------------------------------------------|
B|---------------------------------------------------|
G|---9-9-9-9-9-9--7-7-7-7-7--5-5-5-5-5--3-3-3-3-3----|
D|---------------------------------------------------|
A|---7-7-7-7-7-7--5-5-5-5-5--3-3-3-3-3--1-1-1-1-1----|
D|---------------------------------------------------|


E|---------------------------------------------------|
B|---------------------------------------------------|
G|---9-9-9-9-9-9--10-10-7-7-7--5-5-5-5-5--3-3-3-3-3--|
D|---------------------------------------------------|
A|---7-7-7-7-7-7---8--8-5-5-5--3-3-3-3-3--1-1-1-1-1--|
D|---------------------------------------------------|


E|------------------------------------|
B|------------------------------------|
G|------------------------------------|
D|------------------------------------|
A|---0-0-0----------------------------|
D|---0-0-0----------------------------|
    got to get it out of me


E|---------------------------------------------------|
B|---------------------------------------------------|
G|---9-9-9-9-9-9--7-7-7-7-7--5-5-5-5-5--3-3-3-3-3----|
D|---------------------------------------------------|
A|---7-7-7-7-7-7--5-5-5-5-5--3-3-3-3-3--1-1-1-1-1----|
D|---------------------------------------------------|


E|---------------------------------------------------|
B|---------------------------------------------------|
G|---9-9-9-9-9-9--10-10-7-7-7--5-5-5-5-5--3-3-3-3-3--|
D|---------------------------------------------------|
A|---7-7-7-7-7-7---8--8-5-5-5--3-3-3-3-3--1-1-1-1-1--|
D|---------------------------------------------------|

Silent


E|---------------------------------------------------|
B|---------------------------------------------------|
G|---9-9-9-9-9-9--7-7-7-7-7--5-5-5-5-5--3-3-3-3-3----|
D|---------------------------------------------------|
A|---7-7-7-7-7-7--5-5-5-5-5--3-3-3-3-3--1-1-1-1-1----|
D|---------------------------------------------------|


E|---------------------------------------------------|
B|---------------------------------------------------|
G|---9-9-9-9-9-9--10-10-7-7-7--5-5-5-5-5--3-3-3-3-3--|
D|---------------------------------------------------|
A|---7-7-7-7-7-7---8--8-5-5-5--3-3-3-3-3--1-1-1-1-1--|
D|---------------------------------------------------|


E|------------------------------------|
B|------------------------------------|
G|------------------------------------|
D|----000--333--444----000--333--444--|
A|----000--333--444----000--333--444--|
D|----000--333--444----000--333--444--|
pm.....................................


E|----------------------------------------------------|
B|----------------------------------------------------|
G|----------------------------------------------------|
D|----------------------------------------------------|
A|---0--0--0--0-0---0--0-0----0--0-0-0--0--0-0-0--0-0-|
D|---0--0--0--0-0---0--0-0----0--0-0-0--0--0-0-0--0-0-|

enjoy!!!!! dont forget to rate it
Related for In A Bag tab