Song name
# A B C D E F G H I J K L M N O P Q R S T U V W X Y Z

Static X - A Dios Aima Perida tab

This is the Instrumental song at the end of the album.
Riff 1
|----------|
|----------|
|----------|
|-7-7-\-0~-|
|-7-7-\-0~-|
|-7-7-\-0~-|

Riff 2
|----|
|----|
|----|
|-3~-|
|-3~-|
|-3~-|

Riff 3
|------------------------------|
|------------------------------|
|------------------------------|
|-/-7-11-10-4--8-7-2--1-1-1-0~-|
|-/-7-11-10-4--8-7-2--1-1-1-0~-|
|-/-7-11-10-4--8-7-2--1-1-1-0~-|
Tap to rate this tab
 
# A B C D E F G H I J K L M N O P Q R S T U V W X Y Z