Song name
# A B C D E F G H I J K L M N O P Q R S T U V W X Y Z

Statistics - Nobody Knows Your Name tab

this is the intro for the song...its not played but u can just play along to it with 
power chords..

INTRO/VERSE
|---------------------------------------------------------------------------|
|---------------------------------------------------------------------------|
|------7--------------------------------------------------------------------|
|------7------7--------9----------------------------------------------------|
|------5-x16--7--------9----------------------------------------------------|
|-------------5-x16----7-x16------------------------------------------------|

this is the second part of the song when the distortion comes in

|---------------------------------------------------------------------------|
|---------------------------------------------------------------------------|
|------7--------------------------------------------------------------------|
|------7------7--------9--------5-------------------------------------------|
|------5-x16--7--------9--------5-------------------------------------------|
|-------------5-x16----7-x16----3-x16---------------------------------------|


this is my second tab, i know its not really good,and im still trying to figure out the 
parts which is played when the distortion comes on. any tips and comments would be great.thanks
Tap to rate this tab
 
# A B C D E F G H I J K L M N O P Q R S T U V W X Y Z