Song name
# A B C D E F G H I J K L M N O P Q R S T U V W X Y Z

Status Quo - Diggin Burt Bacharach tab

Tabbed By: Belavista Man
On: 23/12/07
E-mail: anthonybentley@hotmail.co.uk

Here's the solo for Quo's "Diggin' Burt Bacharach" from the album "Heavy Traffic".

e|--------------------------------------------------------------------------|
B|-8-----------------------------------8------------------------------------|
G|---10-7--------------------------------10-7-------------------------------|
D|--------10-8b------------------8-9-10-------10-8b-------------------------|
A|-------------10-10-10-10-10-10-------------------10-10-10-10-10-10-8-9-10-|
E|--------------------------------------------------------------------------|

Repeat that as many times as necassary and finish the first solo with this:
e|-------------------------------|
B|-------------------------------|
G|-------------------------------|
D|------5-5-3-3--------5-5-3-3-5-|
A|--------------5----------------|
E|-/3-3-----------/3-3-----------| X 2

Finish the second solo/outro with this:
e|-----------------------|
B|-----------------------|
G|-----------------------|
D|-----------------------|
A|-8-9-10-8-9-10-8-9-10~-|
E|-----------------------|
Tap to rate this tab
# A B C D E F G H I J K L M N O P Q R S T U V W X Y Z