Song name
# A B C D E F G H I J K L M N O P Q R S T U V W X Y Z

Status Quo - I Dont Wanna Hurt You Anymore tab

Help us improve GuitareTab! Take a short survey!
I Don't Wanna Hurt You Anymore
Status Quo
In Search Of The Fourth Chord 2007


The first solo is played in harmony with an overdub playing two fifths below.
Warm up before attempting the second!

   1:43
  Solo 1 (Gtr. 1)
E|--------------------------------------------------------------------|
B|-13b-13b-rb-13-12-12-13--13b-13b-rb-13-12--13b-13b-rb-12-12-13\10~\-|
G|--------------------------------------------------------------------|
D|--------------------------------------------------------------------|
A|--------------------------------------------------------------------|
E|--------------------------------------------------------------------|

E|------------------------------------------------------------------|
B|-12b-12b-12-10-10-12--12b-12b-12-10---12b-12b--12-10--------------|
G|-----------------------------------------------------12-11-12b-rb-|
D|------------------------------------------------------------------|
A|------------------------------------------------------------------|
E|------------------------------------------------------------------|


  Solo 1 (Gtr. 2)
E|----------------------------------------------------------|
B|----------------------------------------------------------|
G|-7-7-5-4-4-5--7-7-5-4--5h7-5-4-4h5----5-5-4-----4-5-5-4---|
D|-----------------------------------7--------7-7---------7-|
A|----------------------------------------------------------|
E|----------------------------------------------------------|

E|------------------------|
B|------------------------|
G|-5-5--4-----------------|
D|--------7-5-4-5/7-5\\\\-|
A|------------------------|
E|------------------------|
  

  3:29
 Solo 2 
E|----------------------------------------------|
B|----------------------15b-15b-15b-rbp13h15-13-|
G|----------------12-14-------------------------|
D|-10-10/12-12h14-------------------------------|
A|----------------------------------------------|
E|----------------------------------------------|

E|-----------------------------------------------|
B|-------15-18-17-15-------15-18-17-15-----------|
G|-15h16-------------15h16-------------17p15-17b-|
D|-----------------------------------------------|
A|-----------------------------------------------|
E|-----------------------------------------------|

E|--------------------------------------------------------|
B|-15-18p15p13h15-18p15p13h15-18p15p13h15-18p15p13h15-18b-|
G|--------------------------------------------------------|
D|--------------------------------------------------------|
A|--------------------------------------------------------|
E|--------------------------------------------------------|

E|----18-17--------------------18-17--------------|
B|-20-------20-18b-18b-18b--20-------20-18-18b-18-|
G|------------------------------------------------|
D|------------------------------------------------|
A|------------------------------------------------|
E|------------------------------------------------|etc etc.
Related for I Dont Wanna Hurt You Anymore tab